If you are looking for Easy ukulele chords, you have come to the best place.
You can play versatile instrument Easy using ukulele or guitar.
This song by Voxtrot can also be played by that instruments.
=

Easy chords has rhythm and included in Voxtrot (2007) album.
You can also get another musical style, including jazz ukulele chords, country music ukulele chords, pop ukulele chords, world music ukulele chords, and rock ukulele chords here.

Easy by Voxtrot Ukulele Chords

Intro:
(riff 1 below)

Verse 1: (same chords as intro + riff 1)
Those seven months I spent rolling around on the floor
Just like a crippled bird I had my back through the door
Still I turned my nose up at the water and bread
Despite my greater love I was pretected and fed

Chorus: (riff 2)
But I am here, I am here in the center of myself
And do you still think about me?
Yes I am here, waging battle with this version of myself
I right my wrongs and think how things used to be, yes I do

break: intro chords but with riff 3 + riff 4

Verse 2:(same as break)
Some kind of violent spring I have to cover my eyes
Water chokes the lense spitting up on the sky
Rain down in paragraph form
Too late and I don’t know why
I put my legacy first
Oh what a reason to die
(Verse 1 (ie riff 1 again))
All the hours past, the body pressed to the wall
Hear you breath in, breath out sometimes nothing at all
Can you still hear me now
Oh there’s no labour too small
Labour run through you, it’s just response to a call

Chorus: (riff 2)
But I am here, I am here in the center of myself
And do you still think about me?
Yes I am here waging battle with this version of myself
I right my wrongs and think how things used to be, yes I do

Bridge:
A celebration coming up, I see the rising of dawn
Oh, the sun in the scratch of the mirror it starts to blind me
Coming up fast when did it start to go wrong?
I keep a picture of you on the mantle to remind me
of a time when life used to be so easy, so easy, and so small

Verse 3:
I want to dance something caustic and real
Oh these days we trade the earth for the things that we feel
Ch-Ch-Ch-Ch-Ch-
Healing hands never choosing to heal, all this time
The laws smashed I know you like breaking laws
Something you felt, something you’ve seen
We are embodied in between
But when you’re lost in your right (?)
When you are selfish and mean
You are the ugliest person that I have ever seen
And I hate you, I hate you, yes I really do

Chorus 2:(riff 5)
But I am here, I am here in the center of myself
And do you still think about me?
Yes I am here, waging battle with this version of myself
I right my wrongs and think how things used to be

Chorus chords (riff 5 + riff 6)
I am here, I am here in the center of myself
And do you still think about me?
Yes I am here waging battle with this version of myself
I bite my tongue and think how things used to be
so easy

Riff 1:


e|----|-----------|---------|
b|----|-----------|---------|
g|----|-----------|---------|
d|--62|-4--432---2|-0---023-|
a|-4--|---4-----2-|---------|
e|----|-----------|---------| repeat where needed

Riff 2: x2


e|-12----9--------------------------9---------12-------|-14(repeat 13|
b|---1210--10--10-------------10---------10-----10--10-|-14----times)|
g|-----------11---11911---911----11---11----11----11---|-------------|
d|----------------------11-----------------------------|-------------|
a|-----------------------------------------------------|-------------|
e|-----------------------------------------------------|-------------|

Riff 3:


e|----------|----------|----------|----------|
B|-55x55555-|-x55x5555-|-x33x3333-|-x22x2222-|
g|-22x22222-|-x22x2222-|-x22x2222-|-x11x1111-|
d|----------|----------|----------|----------|
a|----------|----------|----------|----------|
e|----------|----------|----------|----------|

^
(this bar only the first time. all other times play the second bar twice)

Riff 4:


e|------------|------------|------------|---------|
b|------------|------------|------------|---------|
g|------------|------------|------------|---------|
d|------------|------------|------------|---------|
a|-4---4577---|-0---0242---|-4---4577---|-0-------|
e|------------|------------|------------|-----4---|

Riff 5: (two frets higher than riff 2)


e|-14----11----------------------------11---------14-------|
b|---1412---12--12---------------12----------12-----12--12-|
g|------------13---131113---1113----13----13----13----13---|
d|------------------------13-------------------------------|
a|---------------------------------------------------------|
e|---------------------------------------------------------|

Riff 6:


e|-----------------------------------------------|-7777(last two lines)-|
b|-77777(just keep repeating it for the first two lines)----------------|
g|-----------------------------------------------|----------------------|
d|-----------------------------------------------|----------------------|
a|-----------------------------------------------|----------------------|
e|-----------------------------------------------|----------------------|

Cheers.

To play the most songs, including Easy by Voxtrot by ukulele, the most crucial basic ukulele chords to learn are C chord, D chord, G chord, and Em chord.
These set you up to play a a lot of songs, and each of them is easy to master.