If you are searching for Wings of Desire ukulele chords, you’ve come to the best place.
You can play versatile instrument Wings of Desire using ukulele or guitar.
This song by Wishbone Ash can also be played by that instruments.
=

Wings of Desire chords has rhythm and included in Strange Affair (1991) album.
You can also get other musical genres, including jazz ukulele chords, country music ukulele chords, pop ukulele chords, world music ukulele chords, and rock ukulele chords here.

Wings of Desire by Wishbone Ash Ukulele Chords


Wings Of Desire – Wishbone Ash
Version Live Dates 3 ? 30th anniversary concert
Introduo: F C G Am
Riff

E |–8–10–8–10—7—8–7—5—————|
B |-10–10–8—8—8—8–8—5—————|
G |——————————————–|
D |——————————————–|
A |——————————————–|
E|——————————————–|

I?ve seen you in black and white
Like a silent mo?vie,
But your colours came through tonight
You really threw me.

Chorus:
Wings of desire will carry us to where we want to be.
Wings of desire will keep us flying for eternity.

Introduo

I?m riding on a wave of love too blue to lose me.
I can?t see to get enough
You really knew me.

Chorus:
Wings of desire will carry us to where we want to be.
Wings of desire will keep us flying for eternity.
.
How many times have I told you
Whenever you ask me why?

How many times can I hold you?
You always know when I try.

Solo : G Am F

Introduo/ Riff (x4)

We connect without a single word
Like a book you read me.
One look, the message heard
With you it?s ea?sy.

Refro (x3)

Wings of desi..re (x5)

EMERSON SARTORI ? crazyhorse_73@hotmail.com

To play the this songs, including Wings of Desire by Wishbone Ash by ukulele, the most important basic ukulele chords to learn are C chord, D chord, G chord, and Em chord.
These set you up to play a a lot of songs, and each of them is easy to learn.

If you are searching for Say Goodbye ukulele chords, you already come to the best place.
You can play versatile instrument Say Goodbye using ukulele or guitar.
This song by Wishbone Ash can also be played by that instruments.
=

Say Goodbye chords has rhythm and included in Locked In (1976) album.
You can also find another musical style, including jazz ukulele chords, country music ukulele chords, pop ukulele chords, world music ukulele chords, and rock ukulele chords here.

Say Goodbye by Wishbone Ash Ukulele Chords


by Wishbone Ash
from the album Locked In
Transcribed by Rob Watson robert.watson14@btinternet.com

Intro capo at first fret

E|———————————|——————-|
B|———-0—————–0—-|0——————|
G|–0—0————-0—0——–|0——————|
D|—-4—5—4———4—5—4–|2——————|
A|7—————–5————–|3——————|
E|———————————|——————-|
E|———————————|——————-|
B|———-0—————–0—-|0——————|
G|——0————-0—0——–|0——————|
D|—-4—5—4———4—5—4–|2——————|
A|7—————–5————–|3——————|
E|———————————|——————-|
E|———————————|————————|
B|———-0—————–0—-|————————|
G|–0—0————-0—0——–|—-0—-0—–0—0—-| x 2
D|—-4—5—4———4—5—4–|–2———-2———-|
A|7—————–5————–|3—–2—-3—–2—3-2|
E|———————————|————————|

I can [Fm/Eb]tell that you don’t feel [/Ab]good[/G][/F]

I guess you’re not alone.[Eb/G]

Now that you [Fm/Eb]packed your things and you're ready [/Ab]to go[/G][/F]

Let’s do something tonight I don’t know. [Eb/G]

We can take a ride across town

Come on, baby, get your clothes on.

All night long, we’ll be so high

That’s the way we’ll say goodbye.

What’s the [Fm/Eb]name of the [/Ab]old c[/G]afe[/F] ( Fill 1 )

Where we used to go? ( Fill[Eb/G] 2 )

It could be [Fm/Eb]good to go [/Ab] there [/G]now [/F](Fill 3)

But I don’t want to be unhappy today. [Eb/G]

Fill 1 Fill 2 Fill 3

E|—16-15—|—|—————–|———|——15-16-16b18-16b18-16-15|13|
B|———16|13-|———s11—–|———|18b20————————|–|
G|———–|—|——13—–13–|10h13p10-|—————————–|–|
D|———–|—|10-11————|———|—————————–|–|
A|———–|—|—————–|———|—————————–|–|
E|———–|—|—————–|———|—————————–|–|

We can take a ride across town

Come on, baby, get your clothes on.
( Tab from: http://www.guitartabs.cc/tabs/w/wishbone_ash/say_goodbye_tab.html )
All night long, we’ll be so high

That’s the way we’ll say goodbye.

Guitar Solo

E|11h|13——|16-15-16—————————-|————|
B|—|——–|———-18-16-18-18b20-18b20-18b20|18b20——-|
G|—|——–|————————————|————|
D|—|——–|————————————|————|
A|—|——–|————————————|————|
E|—|——–|————————————|————|

[Fm/Eb]

E|15-15———————————|-ph———-ph————-|
B|——16-16—————————|—————————-|
G|————15-15-13—-13-15b17r15-13|15b17-15b17-(15b17–8-times)|
D|———————15—————|—————————-|
A|————————————–|—————————-|
E|————————————–|—————————-|

[/Ab] [/G] [/F] [Eb/G]

E|–ph————|———13-15-13———-15|—————15-16|
B|—————-|13-16bss———-16-16b18—|16b18-16-18b20——|
G|(15b17–7-times)|—————————–|——————–|
D|—————-|—————————–|——————–|
A|—————-|—————————–|——————–|
E|—————-|—————————–|——————–|

E|18-18b20-18b20-16-18|15-16b18-16b18-16-15-13b16r13|————————16—|
B|——————–|—————————–|16s13———-13s16-18—-18|
G|——————–|—————————–|——15-13-15—————|
D|——————–|—————————–|—————————–|
A|——————–|—————————–|—————————–|
E|——————–|—————————–|—————————–|

E|———15-16-18-16|18b20-18-16-15-16b18-16-15-13|——————-16-18|
B|18-18b20————|—————————–|16b18r16b18r16–18——|
G|——————–|—————————–|————————|
D|——————–|—————————–|————————|
A|——————–|—————————–|————————|
E|——————–|—————————–|————————|

E|18b20-18-16-15-16-18-18b20-18-16|18b20r18-18b20r18-18b20r18-18b20r18|
B|——————————–|———————————–|
G|——————————–|———————————–|
D|——————————–|———————————–|
A|——————————–|———————————–|
E|——————————–|———————————–|

To play the this songs, including Say Goodbye by Wishbone Ash by ukulele, the most important basic ukulele chords to learn are C chord, D chord, G chord, and Em chord.
These set you up to play a a lot of songs, and each of them is easy to master.

If you are searching for Strange Affair ukulele chords, you have visit to the right site.
You can play versatile instrument Strange Affair using ukulele or guitar.
This song by Wishbone Ash can also be played by that instruments.
=

Strange Affair chords has rhythm and included in Strange Affair (1991) album.
You can also get other musical genres, including jazz ukulele chords, country music ukulele chords, pop ukulele chords, world music ukulele chords, and rock ukulele chords here.

Strange Affair by Wishbone Ash Ukulele Chords


Song: Strange Affair
Album: Live In Chcargo

–Intro Solo–


e||--------5---------------------------------------------------|
B||-7~~~-7---7-5-7~~-------------------------------------------|
G||------------------4H6P4-2~~--2H4P2--------------------------|
D||-----------------------------------4~~--2H4P2---------------|
A||----------------------------------------------2-0-LET RING--|
E||------------------------------------------------------------|

–RIFF 1–


e||----------------|---------------|-------------------------|
B||----------------|---------------|----------------2--------|
G||----------------|---------------|----------------2--1-----|
D||--4--2---2--4---|-4--2---2--4~~-|-4--2---2--4~---2--2-----|
A||-------4--------|------4--------|------4------------2-----|
E||----------------|---------------|-------------------------|


e||----------------|---------------|----------------------2---||
B||----------------|---------------|----------------2-----2---||
G||----------------|---------------|----------------2--1--2---||
D||--4--2---2--4---|-4--2---2--4~~-|-4--2---2--4~---2--2--4---||
A||-------4--------|------4--------|------4------------2--4---||
E||----------------|---------------|----------------------2---||

–First Verse–

I had enough of this strange affair. Tried so hard but we got nowhere.
You drag me down, what you doing it for? I can’t handle it anymore.
Why, oh why won’t you hear me? This information is yours for free.
F#m A F#m Stop
I’m telling you like I know I should. I’m hurt, but you can’t see the blood.

–Chorus–

C#m7 C#m C#m7 C#m B A E B NOTE: Alternate between the sharp minor 7th
Well, I must have been mad. Went to the doctor, I felt so sad. and the sharp
chords just by
C#m7 C#m C#m7 C#m B A E B hammering on your pinkie on the 6th
Yeah, I must be insane. You turned me over again and again. fret g string.

–Riff One–

–Second Verse–
( Tab from: http://www.guitartabs.cc/tabs/w/wishbone_ash/strange_affair_tab.html )
Had enough of this strange affair. Plain to see that you just don’t care.
You been fooling around for too long. That ain’t the way to be carrying on.
Why, oh why don’t it matter to you? Don’t you know what you’re putting me through?
F#m A F#m Stop
But it’s over, tears I have cried. This strange affair is a thorn in my side.

–Chorus–

Well, I must have been mad. Went to the doctor, I felt so sad.
Yeah, I must be insane. You turned me over again and again.

–Solo One (Twin Lead)–

(Chords are the same as in the chorus)


e||---------------------------------------7------9-7------12-9-7---7~--|
B||-------------5-7-7/97~~-------5-7-7/9---9~~------9~----------9-----|
G||--4h6~~--4-6---------------4-6--------------------------------------|
D||--------------------------------------------------------------------|
A||--------------------------------------------------------------------|
E||--------------------------------------------------------------------|
e||---------------------------------------7------9-7-------19^-17------------||
B||-------------5-7-7/97~~-------5-7-7/9---9~~------9~-----------19-17-19~~-||
G||--4h6~~--4-6---------------4-6--------------------------------------------||
D||--------------------------------------------------------------------------||
A||--------------------------------------------------------------------------||
E||--------------------------------------------------------------------------||

–Solo–

Chords go back to the ones in the verse.

–Third Verse–

Had enough of this strange affair. I was a victim of a love so rare.
Told me lies and betrayed my trust. Feel like a sucker with a teenage crush.
Why, oh why keep leading me on? Don’t you know you been doing me wrong?
F#m A F#m Stop
Your best friend confirmed my worst fears. Should have known it had to end in tears.

–Chorus–

Well, I must have been mad. Went to the doctor, I felt so sad.
Yeah, I must be insane. You turned me over again and again.

To play the this songs, including Strange Affair by Wishbone Ash by ukulele, the most important basic ukulele chords to learn are C chord, D chord, G chord, and Em chord.
These set you up to play a a lot of songs, and each of them is easy to learn.

If you are looking for Persephone ukulele chords, you’ve visit to the best site.
You can play versatile instrument Persephone using ukulele or guitar.
This song by Wishbone Ash can also be played by that instruments.
=

Persephone chords has rhythm and included in There’s the Rub (1974) album.
You can also get another musical style, including jazz ukulele chords, country music ukulele chords, pop ukulele chords, world music ukulele chords, and rock ukulele chords here.

Persephone by Wishbone Ash Ukulele Chords

by Wishbone Ash
from the album There’s The Rub

Transcribed by Rob Watson robert.watson14@btinternet.com

Intro

E|——-|——————–|———–|12-14-15–17-15-|
B|——-|12-(12pb13)r12——|12-12-13-15|—————-|
G|–12-14|—————14-12|———–|—————-|
D|——-|——————–|———–|—————-|
A|——-|——————–|———–|—————-|
E|——-|——————–|———–|—————-|

E|14——-14|15———-17-15|14—15-17s19|19—-20-19-17—|
B|—16-17—|—17-13———|————-|—————20|
G|———–|———14——|————-|—————–|
D|———–|—————–|————-|—————–|
A|———–|—————–|————-|—————–|
E|———–|—————–|————-|—————–|

E|19-17——|———————–|———-|————-|———-|
B|——20-19|17————(12pb13)r|12——–|————-|———-|
G|———–|———————–|—–12b14|r12–(9pb11)r|9———|
D|———–|———————–|———-|————-|———-|
A|———–|———————–|———-|————-|———-|
E|———–|———————–|———-|————-|———-|

Middle Solo

E|x-x-x————————|———————-|——————-|12p10h12p10—–8p7———–|
B|—————11h12———|——————–8-|-4-7-5————-|——————–8———|
G|——–11h12h14—–11-14-12|11——————–|——-7-5-4——-|————12——–7——-|
D|—–14———————-|—14—-9h10p9p7h9—|——————-|————————9–9-7|
A|—————————–|——14————–|——————-|——————————|
E|—————————–|———————-|——————-|——————————|

[B7/D#]

E|————————————-10-12—14-12——|——14-12——|——————————12-14-15|
B|—————————-12-11-10—————15-12|15b17——-15-12|15b17r15b17r15b17r15b17r15b17———|
G|——9-8-7———11-10-9—————————–|—————–|————————————–|
D|9-8-7——-11-10-9————————————-|—————–|————————————–|
A|——————————————————–|—————–|————————————–|
E|——————————————————–|—————–|————————————–|

[B7/D#]

E|12-14-15——|10-7h10p7—-7————————————|—17-14-15-12-14-10-12-8-10|
B|———15sd-|———-10—10-7—7—————————|—17-13-15-12-13-10-12-8-10|
G|————–|——————–9—9-7—7——————-|—————————-|
D|————–|—————————-9—9-7—7———–|—————————-|
A|————–|————————————9—9s7-5-7b9r|9—————————|
E|————–|————————————————–|—————————-|

( harmonics )

E|7–14-10-12-7-10-5|7—————–12—-12|———————–|—————-|———–|
B|7–15-10-12-7-10-5|7——————–12—|7———————-|—————-|———–|
G|——————|————————–|———————-4|4————4b5|r4——2b4|
D|——————|————————–|———————–|—————-|———–|
A|——————|————————–|———————–|—————-|———–|
E|——————|————————–|———————–|—————-|———–|


[2/4] [4/4]

E|——————|————————–|5b7-5-3-5-2————|2h3–2-3—–|—-2-3s5-3h5p3p2—|
B|——————|————-3-5—-3—3-|————3———-|———3s5-|–3—————3s|
G|r2-0—0———-|——-0-2s4—–4—-4—|————–2——–|————-|4——————-|
D|—–2—2——–|—0-2——————–|———————–|————-|——————–|
A|———–2——|————————–|———————–|————-|——————–|
E|——————|————————–|———————–|————-|——————–|

I Came

E|——————|————————–|———————–|—————-|———–|
B|5———–3s5s3-|——–3s5s3————-|———————–|—————-|———–|
G|——————|4————–4-2——–|———————–|—————-|———–|
D|——————|————————–|———————–|—————-|———–|
A|——————|————————–|———————–|—————-|———–|
E|——————|————————–|———————–|—————-|———–|

To play the this songs, including Persephone by Wishbone Ash by ukulele, the most important basic ukulele chords to learn are C chord, D chord, G chord, and Em chord.
These set you up to play a a lot of songs, and each of them is easy to learn.

If you are searching for Queen of Torture ukulele chords, you have visit to the best place.
You can play versatile instrument Queen of Torture using ukulele or guitar.
This song by Wishbone Ash can also be played by that instruments.
=

Queen of Torture chords has rhythm and included in Wishbone Ash (1970) album.
You can also find another musical style, including jazz ukulele chords, country music ukulele chords, pop ukulele chords, world music ukulele chords, and rock ukulele chords here.

Queen of Torture by Wishbone Ash Ukulele Chords


by Wishbone Ash
from the CD Wishbone Ash

Transcribed by Rob Watson robert.watson14@btinternet.com

Intro

Gtr R


E|15p12------15p12----15p12----15p12---|15p12----15p12----15p12----15p12---|--------|------------|
B|-------12--------12-------12-------12|------12-------12-------12-------12|12------|------------|
G|-------------------------------------|-----------------------------------|--------|------------|
D|-------------------------------------|-----------------------------------|14------|------------| x2
A|-------------------------------------|-----------------------------------|--------|------------|
E|-------------------------------------|-----------------------------------|--------|------------|

|Gtr L | | | |


E|14p12------14p12----14p12----14p12---|14p12----14p12----14p12----14p12---|15------|------------|
B|------(12)-------12-------12-------12|------12-------12-------12-------12|12------|------------|
G|-------------------------------------|-----------------------------------|--------|------------|
D|-------------------------------------|-----------------------------------|--------|------------|
A|-------------------------------------|-----------------------------------|--------|------------|
E|-------------------------------------|-----------------------------------|--------|------------|

Riff A play 4 times

[(Em)]
Gtr R


E|-----------------------------|
B|-----------------------------|
G|-----------------------------|
D|------------7-7---9p7--------|
A|7-7--10-10------------10-----|
E|-----------------------------|

|Gtr L |


E|-----------------------------|
B|-----------------------------|
G|-----------------------------|
D|-----------------------------|
A|------------7-7---9p7--------|
E|7-7--10-10------------10-----|

Verse
|Riff A |Riff A|Riff A |Riff A|
Has anybody seen my baby kickin’ around the town?
|Riff A |Riff B |
She’s the queen of torture, yeah,
|Riff A |Riff B |
Yeah, you know she put me down.
Riff B

[(C)]
Gtr R


E|-----------------------------|
B|-----------------------------|
G|-----------------------------|
D|----------7-7-9--------------|
A|7-7-10-10-------10-10--------|
E|-----------------------------|

|Gtr L |


E|-----------------------------|
B|-----------------------------|
G|-----------------------------|
D|-----------------------------|
A|----7-7--10p7---7------------|
E|8-8-----------8---8----------|

Harmony Guitar Section

Gtr R


E|--12----------15|14-12-------|15b17----------15-14-12------|-------------------------|
B|-----15-12-14---|------------|------------------------15-14|12-----------------------|
G|----------------|------------|-----------------------------|-------------------------|
D|----------------|------------|-----------------------------|-------------------------|
A|7---------------|------------|-----------------------------|-------------------------|
E|----------------|------------|-----------------------------|-------------------------|

|Gtr L | | | |


E|----------------|------------|-----------------------------|-------------------------|
B|----------------|------------|------12---------------------|-------------------------|
G|--12-11----11-12|11----------|14b16----(16)--14-12-11-12-11|-------------------------|
D|--------14------|---14-------|-----------------------------|14-----------------------|
A|10--------------|------------|-----------------------------|-------------------------|
E|----------------|------------|-----------------------------|-------------------------|

Solo 1
( Tab from: http://www.guitartabs.cc/tabs/w/wishbone_ash/queen_of_torture_tab.html )


E|---|------------------|------------------|---------------|------0-0-0--|------|-----|
B|---|------------------|------------------|---------------|----0-------3|3b5---|3b5--|
G|--0|2b4-2b4-2b4r2p0-2-|2b4-2b4-2b4r2p0-2-|0--------------|2b4----------|------|-----|
D|2--|------------------|------------------|--2p0-------0-2|-------------|------|-----|
A|---|------------------|------------------|------2-0h2----|-------------|------|-----|
E|---|------------------|------------------|---------------|-------------|------|-----|


E|----0h3-----0-3|5b7r5-3---0-0--|------10---------------|-------------------------------|
B|3b5-----3b5----|--------5-----7|10b12----10b12-r10-8-10|10b11r10-8-10-8----------------|
G|---------------|---------------|-----------------------|----------------9-----7-9p7----|
D|---------------|---------------|-----------------------|------------------7h9-------9--|
A|---------------|---------------|-----------------------|-------------------------------|
E|---------------|---------------|-----------------------|-------------------------------|


E|---------------|7-------------|-------|12b14r12r10-------------| repeat intro
B|---------------|--8---8-10b11b|12-----|------------12----------|
G|7-9-7-9---9-7-9|----9---------|-------|------------------------|
D|---------------|--------------|-------|------------------------|
A|---------------|--------------|-------|------------------------|
E|---------------|--------------|-------|------------------------|

Solo 2


E|---------12|12----------12-------12-------12|------12-------12-------12-------12|
B|12-14-15---|15b17-15b17----15b17----15b17---|15b17----15b17----15b17----15b17---|
G|-----------|--------------------------------|-----------------------------------|
D|-----------|--------------------------------|-----------------------------------|
A|-----------|--------------------------------|-----------------------------------|
E|-----------|--------------------------------|-----------------------------------|


E|------12-------12-------12-------12|------12-------12-------12----|-------12---------12----|
B|15b17----15b17----15b17----15b17---|15b17----15b17----15b17----15b|17--------15b17---------|
G|-----------------------------------|------------------------------|------------------------|
D|-----------------------------------|------------------------------|------------------------|
A|-----------------------------------|------------------------------|------------------------|
E|-----------------------------------|------------------------------|------------------------|
E|--------------------------|--------------------------------------|-------------------------|
B|15b17r15b17-15-12-------12|12------------------------------------|---12--------------------|
G|------------------14b16---|---14b16r14-12-14-12----------12-14-12|14----12-12--------------|
D|--------------------------|---------------------14-12-14---------|-------------------------|
A|--------------------------|--------------------------------------|-------------------------|
E|--------------------------|--------------------------------------|-------------------------|


E|19p15----19p15----19p15----19p15---|19p15----19p15----19p15----19p15---|15-17b19--17-15|
B|------17-------17-------17-------17|------17-------17-------17-------17|---------------|
G|-----------------------------------|-----------------------------------|---------------|
D|-----------------------------------|-----------------------------------|---------------|
A|-----------------------------------|-----------------------------------|---------------|
E|-----------------------------------|-----------------------------------|---------------|


E|14-15-14------------|----------------------|-------------------------|
B|---------15-12------|12-15p14p12-------12--|14-12-12-----------------|
G|---------------14b16|------------14b15-----|-------------------------|
D|--------------------|----------------------|-------------------------|
A|--------------------|----------------------|-------------------------|
E|--------------------|----------------------|-------------------------|

Additional verses

Has anybody seen my woman hangin’ round the streets?
She ain’t been home for oh, so long
She walked right out on me. Yeah, [-]yeah, yeah, yeah, yeah.
Has anybody seen my woman out around the city?
She ain’t been home for two weeks now,
And ain’t that such a pity, yeah. Yeah, yeah, yeah, yeah, yeah.

To play the most songs, including Queen of Torture by Wishbone Ash by ukulele, the most crucial basic ukulele chords to learn are C chord, D chord, G chord, and Em chord.
These set you up to play a a lot of songs, and each of them is easy to learn.