Chapters by The Romantics Ukulele Chords

Posted on

If you are searching for Chapters ukulele chords, you have visit to the right site.
You can play versatile instrument Chapters using ukulele or guitar.
This song by The Romantics can also be played by that instruments.
=

Chapters chords has Ballade rhythm and included in In Heat (1983) album.
You can also get another musical style, including jazz ukulele chords, country music ukulele chords, pop ukulele chords, world music ukulele chords, and rock ukulele chords here.

Chapters by The Romantics Ukulele Chords

[A-E-A-D-F#-B]

TABBED BY andherembrace

ADMINS-I’M AWARE THE TAB LOOKS MESSED UP IN THE ‘EDIT TAB ‘AREA
SINCE IT WAS COPY/PASTED FROM A NOTEPAD SESSION,
HOWEVER THIS SHOULD NOT EFFECT APPROVAL SINCE IT LOOKS FINE IN THE PREVIEW TAB
AREA,AND THATS HOW IT IS FEATURED ON THE SITE

L


-----------------------------------------------------------------------|
-----------------------------------------------------------------------|
-----------------------------------------------------------------------|
-----------------------------------------------------------------------|
-----------------------------------------------------------------------|
12--0-12-0-12-0-12-0-12-0-12-0-12-13-0-12-0-12-0-12-0-11-0-10-0-9-0---|

R 7TH


-------------------------------------------------------------------------|
----------------------------------------------------------------------X-X|
----------------------------------------------------------------------X-X|
----------------------------------------------------------------------X-X|
----------------------------------------------------------------------X-X|
12----------------------------------------------------------------------|

0:08


----------------------------------------------------------------------------------|
----------------------------------------------------------------------------------|
----------------------------------------------------------------------------------|
----------------------------------------------------------------------------------|
----------------------------------------------------------------------------13----|
12--0-12-0-12-0-12-0-12-0-12-0-12-13-0-12-0-12-0-12-0-12-0-12-0-12-0-12-13----12~|
----------------------------------------------------------------------------|
----------------------------------------------------------------------------|
----------------------------------------------------------------------------|
----------------------------------------------------------------------------|
----------------------------------------------------------------------------|
-0-12-0-12-0-12-0-12-0-12-0-12-13-0-12-0-12-0-12-0-12-0-17-15-0-15-13-0-10-|
----------------------------------------------------------------------------------|
----------------------------------------------------------------------------------|
----------------------------------------------------------------------------------|
----------------------------------------------------------------------------------|
----------------------------------------------------------------------------13----|
12--0-12-0-12-0-12-0-12-0-12-0-12-13-0-12-0-12-0-12-0-12-0-12-0-12-0-12-13----12~|
-------------------------------------------------------------------------|
-------------------------------------------------------------------------|
-------------------------------------------------------------------------|
-------------------------------------------------------------------------|
-------------------------------------------------------------------------|
-0-12-0-12-0-12-0-12-0-12-0-12-13-0-12-0-12-0-12-0-12-0-8-7-5-0-7-5-3-0-|

0:26


-----------------------------------------------------------------------|
-----------------------------------------------------------------------|
--------------------------------------------------------------------^--|
-----------------------------------------------^-------------17---15-19|
-5------5---5---5-------5----5/------12--12---8-10------15-------------|
--0-0-0---0---0---000-0---0------8-8---8----8------15-15--15---15------|

0:31
L


-----------------------------------------------------------------------|
-----------------------------------------------------------------------|
--------------------------------------------------------------------^--|
-----------------------------------------------^-------------17---15-19|
-5------5---5---5-------5----5/------12--12---8-10------15-------------|
--0-0-0---0---0---000-0---0------8-8---8----8------15-15--15---15------|

R


-----------------------------------------------------------------------|
-----------------------------------------------------------------------|
--------------------------------------------------------------------^--|
-------------------------------------------------------------17---15-19|
-5------5---5---5-------5----5/------8---8-----5/7-------15------------|
--0-0-0---0---0---000-0---0------8-8---8---8--------15-15--15---15-----|

L


-----------------------------------------------------------------------|
-----------------------------------------------------------------------|
--------------------------------------------------------------------^--|
-----------------------------------------------^-------------17---15-19|
-5------5---5---5-------5----5-5-----12--12---8-10------15-------------|
--0-0-0---0---0---000-0---0------8-8---8----8------15-15--15---15------|

-----------------------------------------------------------------------|
-----------------------------------------------------------------------|
-----------------------------------------------------------------------|
-----------------------------------------------------------------------|
-8------8---8---8-------8---8-8-------------8-8-8-----------3-3-3-----|
--0-0-0---0---0---000-0---0------------------8-8-8-----------3-3-3-----|

0:40
L


-----------------------------------------------------------------------|
-----------------------------------------------------------------------|
--------------------------------------------------------------------^--|
-----------------------------------------------^-------------17---15-19|
-5------5---5---5-------5----5/------12--12---8-10------15-------------|
--0-0-0---0---0---000-0---0------8-8---8----8------15-15--15---15------|

R


-----------------------------------------------------------------------|
-----------------------------------------------------------------------|
--------------------------------------------------------------------^--|
-------------------------------------------------------------17---15-19|
-8------8---8---8-------8----8------8---8----5/7--------15------------|
--0-0-0---0---0---000-0---0------8-8---8---8--------15-15--15---15-----|

0:46


----------17-17-17----------18-18-18-------17-17--|
-15-15-15----------15-15-15----------15-15--------|
--------------------------------------------------|
--------------------------------------------------|
--------------------------------------------------|
--------------------------------------------------|


-------------------------------------------------|
-------------------------------------------------|
-------------------------------------------------|
-15-15-15-15-15-15-15-15-15-15-15-15-15-15-14-14-|
-12-12-12-12-12-12-12-12-12-12-12-12-12-12-12-12-|
-12-12-12-12-12-12-12-12-12-12-12-12-12-12-12-12-|


----------17-17-17----------18-18-18-15-15-17-17--|
-15-15-15----------15-15-15-----------------------|
--------------------------------------------------|
--------------------------------------------------|
--------------------------------------------------|
--------------------------------------------------|


--------------------------------------------------|
--------------------------------------------------|
--------------------------------------------------|
-12-12-12-12-12-12-12-12-12-12-12-12-12-12-12-12--|
-10-10-10-10-10-10-10-10-10-10-10-10-10-10-10-10--|
-10-10-10-10-10-10-10-10-10-10-10-10-10-10-10-10--|

__
1 /


------171717------181818-1717-15-17-15-131313-151515-121212-131313--------|
151515------151515------------------------------------------------15151515|
--------------------------------------------------------------------------|
--------------------------------------------------------------------------|
--------------------------------------------------------------------------|
--------------------------------------------------------------------------|


--------------------------------------------------------------------|
--------------------------------------------------------------------|
--------------------------------------------------------------------|

-15151515151515151515151515151414-151515151515-14141414141415141414-|
-12121212121212121212121212121212-151515151515-10101010101010101010-|
-12121212121212121212121212121212-151515151515-10101010101010101010-|


----------17-17-17----------18-18-18-------17-17--|
-15-15-15----------15-15-15----------15-15--------|
--------------------------------------------------|
--------------------------------------------------|
--------------------------------------------------|
--------------------------------------------------|


-------------------------------------------------|
-------------------------------------------------|
-------------------------------------------------|
-15-15-15-15-15-15-15-15-15-15-15-15-15-15-14-14-|
-12-12-12-12-12-12-12-12-12-12-12-12-12-12-12-12-|
-12-12-12-12-12-12-12-12-12-12-12-12-12-12-12-12-|


----------17-17-17----------18-18-18-15-15-17-17--|
-15-15-15----------15-15-15-----------------------|
--------------------------------------------------|
--------------------------------------------------|
--------------------------------------------------|
--------------------------------------------------|


--------------------------------------------------|
--------------------------------------------------|
--------------------------------------------------|
-12-12-12-12-12-12-12-12-12-12-12-12-12-12-12-12--|
-10-10-10-10-10-10-10-10-10-10-10-10-10-10-10-10--|
-10-10-10-10-10-10-10-10-10-10-10-10-10-10-10-10--|

__
1 /


------171717------181818-1717-15-17-15-131313-151515-121212-131313--------|
151515------151515------------------------------------------------15151515|
--------------------------------------------------------------------------|
--------------------------------------------------------------------------|
--------------------------------------------------------------------------|
--------------------------------------------------------------------------|


---------------------------------------------------------------------|
---------------------------------------------------------------------|
---------------------------------------------------------------------|

-15151515151515151515151515151414-101010101010-121212121212-15141414-|


-12121212121212121212121212121212--8-8-8-8-8-8-101010101010-10101010-|
-12121212121212121212121212121212--8-8-8-8-8-8-101010101010-10101010-|

1:04


------13------13--------------11----------------|
--15------15------15-15-15-15----15------8------|
-------------------------------------10-----9---|
------------------------------------------------|
------------------------------------------------|
------------------------------------------------|


------------------------------------------------|
------------------------------------------------|
------------------------------------------------|
-15-----------------------0-0----0--------------|
-12-----------------------0-0----0--------------|
-12-----------------------0-0----0--------------|

1:10


------------------------------------------10--------------10----|
-------------------------------------------------------10-------|
------10-9-10-10------10-9-10-10-------10--------12-------------|
--7----------------7---------------8---------10-----10----------|
----------------------------------------------------------------|
----------------------------------------------------------------|


---------------------------------------------------------------|
---------------------------------------------------------------|
---------------------------------------------------------------|
--0--0-0---0-0----0--0-0---0-0---------------------------------|
--0--0-0---0-0----0--0-0---0-0---------------------------------|
--0--0-0---0-0----0--0-0---0-0---------------------------------|


------------------------------------------10--------------10----|
-------------------------------------------------------10-------|
------10-9-10-10------10-9-10-10-------10--------12-------------|
--7----------------7---------------8---------10-----10----------|
----------------------------------------------------------------|
----------------------------------------------------------------|


---------------------------------------------------------------|
---------------------------------------------------------------|
---------------------------------------------------------------|
--0--0-0---0-0----0--0-0---0-0---------------------------------|
--0--0-0---0-0----0--0-0---0-0---------------------------------|
--0--0-0---0-0----0--0-0---0-0---------------------------------|


------------------------------------------10--------------10----|
-------------------------------------------------------10-------|
------10-9-10-10------10-9-10-10-------10--------12-------------|
--7----------------7---------------8---------10-----10----------|
----------------------------------------------------------------|
----------------------------------------------------------------|


---------------------------------------------------------------|
---------------------------------------------------------------|
---------------------------------------------------------------|
--0--0-0---0-0----0--0-0---0-0--------------(10)---------------|
--0--0-0---0-0----0--0-0---0-0--------------(10)---------------|
--0--0-0---0-0----0--0-0---0-0--------------(10)---------------|

spm


------------------------------------------10--------------10----|
-------------------------------------------------------10-------|
------10-9-10-10------10-9-10-10-------10--------12-------------|
--7----------------7---------------8---------10-----10----------|
----------------------------------------------------------------|
----------------------------------------------------------------|


---------------------------------------------------------------|
---------------------------------------------------------------|
---------------------------------------------------------------|
--0--0-0---0-0----0--0-0---0-0--------------(10)---------------|
--0--0-0---0-0----0--0-0---0-0--------------(10)---------------|
--0--0-0---0-0----0--0-0---0-0--------------(10)---------------|

spm

1:29


--------------------------------------|
--------------------------------------|
--------------------------------------|
0-0-0-12-12-12-0-0-0-12-12-12-0-2-0-3-|
--------------------------------------|
--------------------------------------|


--------------------------------------|
--------------------------------------|
--------------------------------------|
-0------------------------------------|
-0------------------------------------|
-0------------------------------------|


--------------------------------------|
--------------------------------------|
--------------------------------------|
0-0-0-12-12-12-0-0-0-12-12-12-0-2-0-3-|
--------------------------------------|
--------------------------------------|


--------------------------------------|
--------------------------------------|
--------------------------------------|
-0------------------------------------|
-0------------------------------------|
-0------------------------------------|


--------------------------------------|
--------------------------------------|
--------------------------------------|
0-0-0-12-12-12-0-0-0-12-12-12-0-2-0-3-|
--------------------------------------|
--------------------------------------|


--------------------------------------|
--------------------------------------|
--------------------------------------|
-8-------------5----------------------|
-8-------------5----------------------|
-8-------------5----------------------|


--------------------------------------|
--------------------------------------|
--------------------------------------|
0-0-0-12-12-12-0-0-0-12-12-12-0-2-0-3-|
--------------------------------------|
--------------------------------------|


--------------------------------------|
--------------------------------------|
--------------------------------------|
-0------------------------------------|
-0------------------------------------|
-0------------------------------------|


--------------------------------------|
--------------------------------------|
--------------------------------------|
0-0-0-12-12-12-0-0-0-12-12-12-0-2-0-3-|
--------------------------------------|
--------------------------------------|


--------------------------------------|
--------------------------------------|
--------------------------------------|
-8----------88-12---------------------|
-8----------88-10---------------------|
-8----------88-10---------------------|

1:39

L


--------------------------------------|
--------------------------------------|
--------------------------------------|
0-0-0-12-12-12-0-0-0-12-12-12-0-2-0-3-|
--------------------------------------|
--------------------------------------|

R


-----------------------------------------|
-----------------------------------------|
--------------------------------14---12--|
0-0-0-15-15-15-0-0-0-15-15-15-0----0-----|
-----------------------------------------|
-----------------------------------------|

L


--------------------------------------|
--------------------------------------|
--------------------------------------|
0-0-0-12-12-12-0-0-0-12-12-12-0-2-0-3-|
--------------------------------------|
--------------------------------------|

R


-----------------------------------------|
-----------------------------------------|
------------------------------14---12----|
0-0-0-15-15-15-0-0-0-14-14-14----0----15-|
-----------------------------------------|
-----------------------------------------|

L


--------------------------------------|
--------------------------------------|
--------------------------------------|
0-0-0-12-12-12-0-0-0-12-12-12-0-2-0-3-|
--------------------------------------|
--------------------------------------|

R


-----------------------------------------|
-----------------------------------------|
--------------------------------14---12--|
0-0-0-15-15-15-0-0-0-15-15-15-0----0-----|
-----------------------------------------|
-----------------------------------------|

L


--------------------------------------|
--------------------------------------|
--------------------------------------|
0-0-0-12-12-12-0-0-0-12-12-12-0-2-0-3-|
--------------------------------------|
--------------------------------------|

R


-----------------------------------------|
-----------------------------------------|
------------------------------14---12----|
0-0-0-15-15-15-0-0-0-14-14-14----0----15-|
-----------------------------------------|
-----------------------------------------|

1:49


-------------------------------------------------------------------------|
-------------------------------------------------------------------------|
-------------------------------------------------------------------------|
-------------------------------------------------------------------------|
-13-12------13-12--------------------13-12------13-12-----17--15---------|
------12-0-------12-0---7-0-8-0-10-0------12-0-------12-0---14--14-17-14-|

-------------------------------------------------------------------------|
-------------------------------------------------------------------------|
-------------------------------------------------------------------------|
-------------------------------------------------------------------------|
-13-12------13-12--------------------13-12------13-12-----17--15---------|
------12-0-------12-0---7-0-8-0-10-0------12-0-------12-0---14--14-17-14-|

-------------------------------------------------------------------------|
-------------------------------------------------------------------------|
-------------------------------------------------------------------------|
-------------------------------------------------------------------------|
-13-12------13-12--------------------13-12------13-12-----17--15---------|
------12-0-------12-0---7-0-8-0-10-0------12-0-------12-0---14--14-17-14-|

-------------------------------------------------------------------------|
-------------------------------------------------------------------------|
-------------------------------------------------------------------------|
-------------------------------------------------------------------------|
-13-12------13-12--------------------13-12------13-12-----17--15---------|
------12-0-------12-0---7-0-8-0-10-0------12-0-------12-0---14--14-17-14-|

2:05


------171717------181818-----1717-------171717------181818-1515-1717--|
151515------151515------1515-----151515------151515-------------------|
----------------------------------------------------------------------|
----------------------------------------------------------------------|
----------------------------------------------------------------------|
----------------------------------------------------------------------|


--------------------------------------------------------|
--------------------------------------------------------|
---------------------------------------7----------------|
-8-8-8--8--8-8--8-8--888--8--8-8--8--8-8-000--000--000--|
-8-8-8--8--8-8--8-8--888--8--8-8--8--8---000--000--000--|
-8-8-8--8--8-8--8-8--888--8--8-8--8--8---000--000--000--|


------171717------181818-----1717-------171717--------|
151515------151515------1515-----151515------151515---|
------------------------------------------------------|
------------------------------------------------------|
------------------------------------------------------|
------------------------------------------------------|


----------------------------------------------------------|
----------------------------------------------------------|
----------------------------------------------------------|
-5-5-5--5--5-5--5-5--555--5--5-5--5--5-5------------------|
-5-5-5--5--5-5--5-5--555--5--5-5--5--5-5------------------|
-5-5-5--5--5-5--5-5--555--5--5-5--5--5-5--00000--0-0--0---|

2:15


----------17-17-17----------18-18-18-------17-17--|
-15-15-15----------15-15-15----------15-15--------|
--------------------------------------------------|
--------------------------------------------------|
--------------------------------------------------|
--------------------------------------------------|


-------------------------------------------------|
-------------------------------------------------|
-------------------------------------------------|
-15-15-15-15-15-15-15-15-15-15-15-15-15-15-14-14-|
-12-12-12-12-12-12-12-12-12-12-12-12-12-12-12-12-|
-12-12-12-12-12-12-12-12-12-12-12-12-12-12-12-12-|


----------17-17-17----------18-18-18-15-15-17-17--|
-15-15-15----------15-15-15-----------------------|
--------------------------------------------------|
--------------------------------------------------|
--------------------------------------------------|
--------------------------------------------------|


--------------------------------------------------|
--------------------------------------------------|
--------------------------------------------------|
-12-12-12-12-12-12-12-12-12-12-12-12-12-12-12-12--|
-10-10-10-10-10-10-10-10-10-10-10-10-10-10-10-10--|
-10-10-10-10-10-10-10-10-10-10-10-10-10-10-10-10--|

__
1 /


------171717------181818-1717-15-17-15-131313-151515-121212-131313--------|
151515------151515------------------------------------------------15151515|
--------------------------------------------------------------------------|
--------------------------------------------------------------------------|
--------------------------------------------------------------------------|
--------------------------------------------------------------------------|


--------------------------------------------------------------------|
--------------------------------------------------------------------|
--------------------------------------------------------------------|

-15151515151515151515151515151414-151515151515-14141414141415141414-|
-12121212121212121212121212121212-151515151515-10101010101010101010-|
-12121212121212121212121212121212-151515151515-10101010101010101010-|


----------17-17-17----------18-18-18-------17-17--|
-15-15-15----------15-15-15----------15-15--------|
--------------------------------------------------|
--------------------------------------------------|
--------------------------------------------------|
--------------------------------------------------|


-------------------------------------------------|
-------------------------------------------------|
-------------------------------------------------|
-15-15-15-15-15-15-15-15-15-15-15-15-15-15-14-14-|
-12-12-12-12-12-12-12-12-12-12-12-12-12-12-12-12-|
-12-12-12-12-12-12-12-12-12-12-12-12-12-12-12-12-|


----------17-17-17----------18-18-18-15-15-17-17--|
-15-15-15----------15-15-15-----------------------|
--------------------------------------------------|
--------------------------------------------------|
--------------------------------------------------|
--------------------------------------------------|


--------------------------------------------------|
--------------------------------------------------|
--------------------------------------------------|
-12-12-12-12-12-12-12-12-12-12-12-12-12-12-12-12--|
-10-10-10-10-10-10-10-10-10-10-10-10-10-10-10-10--|
-10-10-10-10-10-10-10-10-10-10-10-10-10-10-10-10--|

__
1 /


------171717------181818-1717-15-17-15-131313-151515-121212-131313--------|
151515------151515------------------------------------------------15151515|
--------------------------------------------------------------------------|
--------------------------------------------------------------------------|
--------------------------------------------------------------------------|
--------------------------------------------------------------------------|


---------------------------------------------------------------------|
---------------------------------------------------------------------|
---------------------------------------------------------------------|

-15151515151515151515151515151414-101010101010-10101010101010101010–|


-12121212121212121212121212121212--8-8-8-8-8-8--7-7-7-7-7-7-7-7-7-7--|
-12121212121212121212121212121212--8-8-8-8-8-8--7-7-7-7-7-7-7-7-7-7--|

2:35


---------------------------------------------------------------|
---------------------------------------------------------------|
---------------------------------------------------------------|
-0---------------------------------00000-0000-0----------------|
-0---------------------------------00000-0000-0----------------|
-0---------------------------------00000-0000-0----------------|

2:44


10-000-10-000-1111-1010-00-8-000-10-000-14-000-11-000-1414-1111-00-10-000|
-------------------------------------------------------------------------|
-------------------------------------------------------------------------|
-------------------------------------------------------------------------|
-------------------------------------------------------------------------|
-------------------------------------------------------------------------|


--------------------------------------------------|
--------------------------------------------------|
--------------------------------------------------|
00000--00000--0000000--00000--000-0--00000--00000-|
00000--00000--0000000--00000--000-0--00000--00000-|
00000--00000--0000000--00000--000-0--00000--00000-|


--10-000-11-000-11-000-8-000-8-000-|
-----------------------------------|
-----------------------------------|
-----------------------------------|
-----------------------------------|
-----------------------------------|


-----------------------------------|
-----------------------------------|
-----------------------------------|
-0000000--00000--000-0-------------|
-0000000--00000--000-0-------------|
-0000000--00000--000-0-------------|


10-000-10-000-1111-1010-00-8-000-10-000-14-000-11-000-1414-1111-00-10-000|
-------------------------------------------------------------------------|
-------------------------------------------------------------------------|
-------------------------------------------------------------------------|
-------------------------------------------------------------------------|
-------------------------------------------------------------------------|


--------------------------------------------------|
--------------------------------------------------|
--------------------------------------------------|
00000--00000--0000000--00000--000-0--00000--00000-|
00000--00000--0000000--00000--000-0--00000--00000-|
00000--00000--0000000--00000--000-0--00000--00000-|


--10-000-11-000-11-000-14-000-1414-1111-|
----------------------------------------|
----------------------------------------|
----------------------------------------|
----------------------------------------|
----------------------------------------|


-----------------------------------|
-----------------------------------|
-----------------------------------|
-0000000--00000--000-0-------------|
-0000000--00000--000-0-------------|
-0000000--00000--000-0-------------|


10-000-10-000-1111-1010-00-8-000-10-000-14-000-11-000-1414-1111-00-10-000|
-------------------------------------------------------------------------|
-------------------------------------------------------------------------|
-------------------------------------------------------------------------|
-------------------------------------------------------------------------|
-------------------------------------------------------------------------|


-----------------------------------------|
-----------------------------------------|
-----------------------------------------|
-----------------------------------------|
-----------------------------------------|
000-0-0/12-0-000--12-00-12-000-0-00/12---|


--10-000-11-000-11-000-8-000-8-000-|
-----------------------------------|
-----------------------------------|
-----------------------------------|
-----------------------------------|
-----------------------------------|


-----------------------------------------|
-----------------------------------------|
-----------------------------------------|
-----------------------------------------|
-----------------------------------------|
000-0-0/12-0-000--12-00-12-000-0-00-12/--|


10-000-10-000-1111-1010-00-8-000-10-000-14-000-11-000-1414-1111-00-10-000|
-------------------------------------------------------------------------|
-------------------------------------------------------------------------|
-------------------------------------------------------------------------|
-------------------------------------------------------------------------|
-------------------------------------------------------------------------|


-----------------------------------------|
-----------------------------------------|
-----------------------------------------|
-----------------------------------------|
-----------------------------------------|
000-0-0/12-0-000--12-00-12-000-0-00/12---|


--10-000-11-000-11-000-8-000-8-000-|
-----------------------------------|
-----------------------------------|
-----------------------------------|
-----------------------------------|
-----------------------------------|


-----------------------------------------|
-----------------------------------------|
-----------------------------------------|
-----------------------------------------|
-----------------------------------------|
000-0-0/12-0-000--12-00-12-000-0--0-0-0--|

3:05

w/wah almost closed


----------------------------------------|
----------------------------------------|
----------------------------------------|
-00000--00000--0000000--00000--000-0----|
-00000--00000--0000000--00000--000-0----|
-00000--00000--0000000--00000--000-0----|

--------------------------------------------|
--------------------------------------------|
--------------------------------------------|
-00000--00000--0000000--00000--0--0--0-0-0-0|
-00000--00000--0000000--00000--0--0--0-0-0-0|
-00000--00000--0000000--00000--0--0--0-0-0-0|

3:10


-----------------------------------------|
-----------------------------------------|
------------3----3----3----3----3--------|
-0----------0-00-0-00-0-00-0-00-0-000----|
-1----------0-00-0-00-0-00-0-00-0-000----|
-0----------0-00-0-00-0-00-0-00-0-000----|

-----------------------------------------------------------------------|
-----------------------------------------------------------------------|
------------------------------3----3----3----3----3--------------------|
-0-|--0-0-0---0-0-0-0---------0-00-0-00-0-00-0-00-0-000-0-|-0-0-0--0-0-|
-0-|--0-0-0---0-0-0-0--)(^----0-00-0-00-0-00-0-00-0-000-0-|-0-0-0--0-0-|
-0-|--0-0-0---0-0-0-0-1---0---0-00-0-00-0-00-0-00-0-000-0-|-0-0-0--0-0-|

----------------------------------------------------|
----------------------------------------------------|
----------------------------------------------------|
0------0--0--0--0--0---0-0--0-0-0--0-0-0-0-0--------|
0------0--0--0--0--0---0-0--0-0-0--0-0-0-0-0--------|
0------0--0--0--0--0---0-0--0-0-0--0-0-0-0-0--------|

------------------------------------|
------------------------------------|
------------------------------------|
-0--0--0--0--0---0-0--0-0-0--0-0----|
-0--0--0--0--0---0-0--0-0-0--0-0----|
-0--0--0--0--0---0-0--0-0-0--0-0----|

3:29
SOLO


-------------------------PH~~~-----------------------------------|
------/8--4--3/4-------4-3---------------------------------------|
-7~~-------------5-5---------------------------------SPH--------|
------------------------------------/7--5--7--8--7--5--4~~-------|
----------------------------------------------------------PH-----|
-----------------------------------------------------------3-V---|


-------------------------------------------------------------------------|
-------------------------------------------------------------------------|
-------------------------------------------------------------------------|
0-----0--0--0--0--0--0-0--0-0-0--0-0-0-----0--0--0--0--0--0-0--0-0-0--0-0|
0-----0--0--0--0--0--0-0--0-0-0--0-0-0-----0--0--0--0--0--0-0--0-0-0--0-0|
0-----0--0--0--0--0--0-0--0-0-0--0-0-0-----0--0--0--0--0--0-0--0-0-0--0-0|

3:38
_
1 / )(


-----------5-6-5-----5-6-8-6-8---6-8-6-5-6-5-------------------|
--/8~--6-8-------6-8---------PH--------------8-6---------------|
-------------------------------------------------5~~-----------|
-------------------------------------------------PH------------|
---------------------------------------------------------------|
---------------------------------------------------------------|


------------------------------------------------------------------------|
------------------------------------------------------------------------|
------------------------------------------------------------------------|
-----5---5------5---5---7-5-7/8-------12---12-----12-----19--15----20-19|
---8----------8--------------------10------------------17---------------|
-6-----6----6-----6--------------8-------8-----8-----15----15---15------|

3:42
________ _____
1 / )(/


-^---T---^---T---^---T---^---13-15-13-15/17-17---1513-15--T-^-----13----|
6-8-15--6-8-18--6-8-20--6-8-------------------------------18~-1311---10~|
----------------------------------------------------------------------SPH|
-------------------------------------------------------------------------|
-------------------------------------------------------------------------|
-------------------------------------------------------------------------|


--------------------------------------------------------------------|
--------------------------------------------------------------------|
--------------------------------------------------------------------|
-----5---5------5---5---7-5-7/8-------12---12-----12-----3---7-3-7/8|
---8----------8--------------------10-------------------------------|
-6-----6----6-----6--------------8-------8-----8-----3-3---3--------|

3:47

1 T ^ T ^ T ^ T ^ T ^ T ^


--15--3-6-15--3-6-15--3-6-15--3-6--22-3-6-18-3-6--|
--------------------------------------------------|
--------------------------------------------------|
--------------------------------------------------|
--------------------------------------------------|
--------------------------------------------------|


--------------------------------------------------|
--------------------------------------------------|
--------------------------------------------------|
-5---------------------------------8--------------|
-5---------------------------------8--------------|
-5---------------------------------8--------------|

3:49

1 T ^ T ^ T


--17--5-8-17--5-8--17-5--T---^----T---^----T---------|
------------------------18--6-10-18--6-10-18-6-/15~~-|
-----------------------------------------------------|
-----------------------------------------------------|
-----------------------------------------------------|
-----------------------------------------------------|


-----------------------------------------------------|
-----------------------------------------------------|
-----------------------------------------------------|
-3--------------------------------------------------|
-3--------------------------------------------------|
-3--------------------------------------------------|

3:51

L


--------------------------------------------------------|
--------------------------------------------------------|
---------------------------------------------------_----|
-0-0---0-0-0-0-0-7-0-------8-8--8--8--8--3-3--3---/ ---|
-0-0---0-0-0-0-0-8-0-------8-8--8--8--8--3-3--3--8-7-5--|
-0-0---0-0-0-0-0---0-------8-8--8--8--8--3-3--3---------|

R


--------------------------------------------------------|
--------------------------------------------------------|
--------------------------------------------------^-----|
-0-0---0-0-0-0-0-7-0-------8-8--8--8--8--3-3--3--7-5----|
-0-0---0-0-0-0-0-8-0-------8-8--8--8--8--3-3--3------8--|
-0-0---0-0-0-0-0---0-------8-8--8--8--8--3-3--3---------|


--------------------------------------------------------|
--------------------------------------------------------|
--------------------------------------------------------|
-0-0---0-0-0-0-0-7-0-------8-8--8--8--8--3-3--3--3-3-3--|
-0-0---0-0-0-0-0-8-0-------8-8--8--8--8--3-3--3--3-3-3--|
-0-0---0-0-0-0-0---0-------8-8--8--8--8--3-3--3--3-3-3--|

------------------------------------|
------------------------------------|
------------------------------------|
-0-0---0-0-0-0-0-0--0-------L-------|
-0-0---0-0-0-0-0-0--0--------H------|
-0-0---0-0-0-0-0-0--0--------2/-----|

S X8


--------------------------------------------------------|
--------------------------------------------------------|
--------------------------------------------------------|
-0-0---0-0-0-0-0-0--0------8-8--8--8--8--3-3--3--3-3-3--|
-0-0---0-0-0-0-0-0--0------8-8--8--8--8--3-3--3--3-3-3--|
-0-0---0-0-0-0-0-0--0------8-8--8--8--8--3-3--3--3-3-3--|

S

4:08

w/wah almost closed


---------------------------------------------------------|
---------------------------------------------------------|
-3-3---3-3-3-3-3-3--3------3-3--3--3--3--3-3--3--3-3-3---|
-0-0---0-0-0-0-0-0--0------0-0--0--0--0--0-0--0--0-0-0---|
-0-0---0-0-0-0-0-0--0------0-0--0--0--0--0-0--0--0-0-0---|
-0-0---0-0-0-0-0-0--0------0-0--0--0--0--0-0--0--0-0-0---|

---------------------------------------------------------|
---------------------------------------------------------|
-3-3---3-3-3-3-3-3--3------3-3--3--3--3--3-3--3--3-3-3---|
-0-0---0-0-0-0-0-0--0------0-0--0--0--0--0-0--0--0-0-0---|
-0-0---0-0-0-0-0-0--0------0-0--0--0--0--0-0--0--0-0-0---|
-0-0---0-0-0-0-0-0--0------0-0--0--0--0--0-0--0--0-0-0---|

4:18

L


---------------------------------------------|
---------------------------------------------|
---------------------------------------------|
-------12----12--------12--12---14-12-14-15--|
----15--------------15-----------------------|
-13------13------13-----13-------------------|

R


---------------------------------------------|
---------------------------------------------|
-----------------------14---14--17-14-17/19--|
-------15----12------------------------------|
----15--------------15-----------------------|
-13------13------13-----13-------------------|


--------------------------------------------------|
--------------------------------------------------|
---------------------------------------^----------|
-------19----19------19--------10----14-10-14/15--|
----17----------------------10--------------------|
-15-------15------15-----10-------10--------------|

L


---------------------------------------------|
---------------------------------------------|
---------------------------------------------|
-------12----12--------12--12---14-12-14-15--|
----15--------------15-----------------------|
-13------13------13-----13-------------------|

R


---------------------------------------------|
---------------------------------------------|
-----------------------14---14--17-14-17/19--|
-------15----12------------------------------|
----15--------------15-----------------------|
-13------13------13-----13-------------------|


--------------------------------------------------|
--------------------------------------------------|
---------------------------------------^----------|
-------19----19------19--------10----14-10-14/15--|
----17----------------------10--------------------|
-15-------15------15-----10-------10--------------|

4:25


----------------------------------------------------------------|
----------------------------------------------------------------|
----------------------------------------------------------------|
-----0---0------0---0--2-0-2/3------7---7----7------2---2---2/3-|
---3----------3-------------------5-------------3-3---3---3-----|
-1-----1----1-----1-------------3-----3----3--------------------|

---------------------------------------------------|

To play the most songs, including Chapters by The Romantics by ukulele, the most crucial basic ukulele chords to learn are C chord, D chord, G chord, and Em chord.
These set you up to play a ton of songs, and each of them is easy to learn.

Leave a Reply

Your email address will not be published.