Child’s Anthem by Toto Ukulele Chords

Posted on

If you are searching for Child’s Anthem ukulele chords, you’ve come to the best site.
You can play versatile instrument Child’s Anthem using ukulele or guitar.
This song by Toto can also be played by that instruments.
=

Child’s Anthem chords has rhythm and included in Toto (1978) album.
You can also get other musical genres, including jazz ukulele chords, country music ukulele chords, pop ukulele chords, world music ukulele chords, and rock ukulele chords here.

Child’s Anthem by Toto Ukulele Chords


-------------------------------------------------------------------------------

CHILD’S ANTHEM – Toto


-------------------------------------------------------------------------------

Album: Toto (1978)
Tabbed by: Ahlers
E-mail: fsahlers@gmail.com

This is not originally played on the guitar, but here is how to do it:

Part 1

[+] [+] [+] [+]


e|--4-4-4-4-4-4-4---4-------4-4-4-4-4-4-4---4-----| x2
B|--5-5-5-5-5-4-4---4-------5-5-5-5-5-4-4---4-----|
G|--6-6-6-6-6-4-4---4-------6-6-6-6-6-4-4---4-----|
D|--6-6-6-6-6-6-6---6-------6-6-6-6-6-6-6---6-----|
A|--4-4-4-4-4-6-6---6-------4-4-4-4-4-6-6---6-----|
E|------------4-4---4-----------------4-4---4-----|

Part 2

|C#m B/D# |E F#m |E/G# A Amaj7 |B C#7 |


e|4----------------|0-----------2----|4-------0-----0-----|2--------------4----|
B|5-----------4----|0-----------2----|5-------2-----2-----|4--------------6----|
G|6-----------4----|1-----------2----|4-------2-----1-----|4--------------4----|
D|6-----------4----|2-----------4----|--------2-----2-----|4--------------6----|
A|4-----------6----|2-----------4----|--------0-----0-----|2--------------4----|
E|-----------------|0-----------2----|4-------------------|--------------------|

|F#m E |A Bm |A/C# (ch)Bm/D(/ch) Dmaj7 |E F#7 |


e|2-----------0----|0-----------2----|--------------2-----|0--------------2----|
B|2-----------0----|2-----------3----|2-------3-----2-----|0--------------2----|
G|2-----------1----|2-----------4----|2-------4-----2-----|1--------------3----|
D|4-----------2----|2-----------4----|2-------4-----0-----|2--------------2----|
A|4-----------2----|0-----------2----|4-------5-----------|2--------------4----|
E|2-----------0----|-----------------|--------------------|0--------------2----|

|Bm F#m7 |G Em |D/A A |(ch)C#m/G#(/ch) G# |


e|2-----------2----|3-------0--------|2-------0-----------|4---------4---------|
B|3-----------2----|3-------0--------|3-------2-----------|5---------4---------|
G|4-----------2----|4-------0--------|2-------2-----------|6---------5---------|
D|4-----------2----|5-------2--------|0-------2-----------|6---------6---------|
A|2-----------4----|5-------2--------|0-------0-----------|4---------6---------|
E|------------2----|3-------0--------|--------------------|4---------4---------|

The structure of the song is like this:

Part 1+2
Part 1+2
Part 1+2
Part 1 twice (let the last chord ring)

I hope that helps 🙂

To play the this songs, including Child’s Anthem by Toto by ukulele, the most crucial basic ukulele chords to learn are C chord, D chord, G chord, and Em chord.
These set you up to play a ton of songs, and each of them is easy to learn.

Gravatar Image
Like to play Ukulele and Sudoku Game

Leave a Reply

Your email address will not be published. Required fields are marked *