Circle the Sky by MYCHILDREN MYBRIDE Ukulele Chords

Posted on

If you are looking for Circle the Sky ukulele chords, you’ve visit to the best place.
You can play versatile instrument Circle the Sky using ukulele or guitar.
This song by MYCHILDREN MYBRIDE can also be played by that instruments.
=

Circle the Sky chords has rhythm and included in Having the Heart for War (2004) album.
You can also find another musical genres, including jazz ukulele chords, country music ukulele chords, pop ukulele chords, world music ukulele chords, and rock ukulele chords here.

Circle the Sky by MYCHILDREN MYBRIDE Ukulele Chords

regular tuning.
heavy distortion
Guitar 1 part

Intro


|---------------|
|---------------|
|---------------|
|---------------|
|10-8-6-5-------| let ring
|---------------|

next part


|----------------------------------------------------------------------------|
|----------------------------------------------------------------------------|
|----------------------------------------------------------------------------|
|----------------------------------------------------------------------------|
|3-3-3-3-3-3-3-3-5-5-5-5-6-6-6-6-1-1-1-1-1-1-1-1-5-5-5-5-6-6-6-6-------------|
|----------------------------------------------------------------4-4-4-4-4-4-|
|------------------------------------------------------------------|
|------------------------------------------------------------------|
|------------------------------------------------------------------|
|--------------------6-6-6-6-5-5-5-5-3-3-3-3-5-5-5-5 times 6-|
|----5-5-5-5-6-6-6-6-----------------------------------------------|
|4-4---------------------------------------------------------------|

then
at “drain blood”


|---------------------------------------------------------------------|
|---------------------------------------------------------------------|
|---------------------------------------------------------------------|
|00-------00-------00-----00-------00---------------------------------|
|00-3-3/5-00-3-3/5-00-2/3-00-3-3/5-00-6-6-6-6-5-5-5-5-3-3-3-3-2-2-2-2-|
|00-------00-------00-----00-------00---------------------------------|

pm pm pm pm pm

times 4

cir cle the sky


|----------------|
|----------------|
|----------------|

|000-000-000-000-|
|000-000-000-000-|
|000-000-000-000-|


[--------pm------|

times 4


|------|
|------|
|------|
|------|

|6-5-3-|


|------|
|--------------------------------------------------------------|
|--------------------------------------------------------------|
|--------------------------------------------------------------|
|0-0-00-0-0-0-0-0-00------------------0-0-00-00-00-00-00-------|
|0-0-00-0-0-0-0-0-00------------------0-0-00-00-00-00-00-------|
|0-0-00-0-0-0-0-0-00-5-3-times five---0-0-00-00-00-00-00--5-3--|
[-------pm--------] [------pm-----------------|
|--------------------------------------------------------------|
|--------------------------------------------------------------|
|--------------------------------------------------------------|
|0-0-00-0-00-----0-0-00-0-00-----0-0-00-0-00----0-0-00-0-------|
|0-0-00-0-00-----0-0-00-0-00-----0-0-00-0-00----0-0-00-0-----5-|
|0-0-00-0-00-5-3-0-0-00-0-00-5-3-0-0-00-0-00-53-0-0-00-0-3-1---|
[----pm---] [------pm--] [-----pm--] [--pm----------|

Verse —eighth notes/fast


|---------------------------------------------------------------------------|
|---------------------------------------------------------------------------|
|---------------------------------------------------------------------------|
|---------------------------------------------------------------------------|
|3-3-3-3-3-3-3-3-5-5-5-5-6-6-6-6-1-1-1-1-1-1-1-1-6-6-6-6-5-5-5-5------------|
|---------------------------------------------------------------4-4-4-4-4-4-|
|----------------------------------------------------------------------------|
|----------------------------------------------------------------------------|
|----------------------------------------------------------------------------|
|----------------------------------------------------------------------------|
|----5-5-5-5-6-6-6-6-1-1-1-1-1-1-1-1-6-6-6-6-5-5-5-5-3-3-3-3-3-3-3-3-5-5-5-5-|
|4-4-------------------------------------------------------------------------|
|--------------------------------------------------------------------------|
|--------------------------------------------------------------------------|
|--------------------------------------------------------------------------|
|--------6-6-6-6-6-6-6-6-5-5-5-5-3-3-3-3-----------------------------------|
|6-6-6-6--------------------------------1-1-1-1-1-1-1-1-5-5-5-5-6-6-6-6----|
|----------------------------------------------------------------------4-4-|
|---------------------------|
|---------------------------|
|---------------------------|
|---------------------------|
|---3-3-3-3-5-5-5-5-3-3-3-3-|
|4-4------------------------|

repeat the verse


|---------------|
|---------------|
|---------------|
|---------------|
|---------------|
|3--5-6-8--5-2--|

fast part


|--------------------------|
|--------------------------|
|--------------------------|
|--------------------------|
|--------------------------|

|323532865653-323532653532-

times two


|--------------------------------------------------------|
|--------------------------------------------------------|
|--------------------------------------------------------|
|333333-3-333333-3-1~------000000---------000000---------|
|333333-3-333333-3-1~------000000-3/2/3/5-000000-6/5/6/8-|

|


[--pm-] [-pm--] [--pm-] [-pm-]

times 4


|------------------------------------------------------------------------|
|------------------------------------------------------------------------|
|------------------------------------------------------------------------|
|----------------------------------thats a ten------------thats elevens--|

|666666665555555588888888666666661010101010101010888888881111111111111111


|------------------------------------------------------------------------
|----------------|
|----------------|
|----------------|

|–thats a ten—
|1010101010101010


|----------------

times 2

fast


|--------------------------------------------------------------------------|
|--------------------------------------------------------------------------|
|--------------------------------------------------------------------------|
|000---00---00---00---0---0---0---0---0---000---00---00---000---00---00----|
|000-6-00-5-00-3-00-5-0-6-0-3-0-5-0-6-0-5-000-8-00-6-00-5-000-5-00-6-00-3--|
|000---00---00---00---0---0---0---0---0---000---00---00---000---00---00----|

pm the zeros

times 4

then


|----------------------------------------------------------|
|----------------------------------------------------------|
|----------------------------------------------------------|
|000000-0-00-0-00000-5ph-000000-0-00--[----very fast-------|
|000000-0-00-0-00000-----000000-0-00--5/6-7/8-9/10-10/11---|
|000000 0 00-0 00000-----000000 0 00-----------------------|
[--------pm-------] [-----pm---------------------------|
|------------------------------------|
|------------------------------------|
|------------------------------------|
|444444-4-444-44-653-63--000000-0-00-|
|444444-4-444-44---------000000-0-00-|
|444444-4-444-44---------000000-0-00-|
[------pm-----] [---pm------|

next.


|----------------------------------------------------|
|----------------------------------------------------|
|----------------------------------------------------|
|---------0-00-0000-0-0000--0-0-00----0-00-0000-0----|
|6-5-3-2--0-00-0000-0-0000--0-0-00----0-00-0000-0----|
|---------0-00-0000-0-0000--0-0-00----0-00-0000-0----|
[-------------------pm---------------------|
|----------------------------------------------------------------------|
|----------------------------------------------------------------------|
|----------------------------------------------------------------------|
|0-0-0000-0-0000-0000---0-0-0000-0-0000-0000---0-0-0000-0-0000-0000----|
|0-0-0000-0-0000-0000---0-0-0000-0-0000-0000---0-0-0000-0-0000-0000----|
|0-0-0000-0-0000-0000---0-0-0000-0-0000-0000---0-0-0000-0-0000-0000----|
[--------------------------------pm-----------------------------------|
|-----------------------|
|-----------------------|
|-----------------------|
|0-0-0000-0-------------|
|0-0-0000-0-------10/0--|
|0-0-0000-0-------10/0--|

slower


|---------------------|
|---------------------|
|---------------------|
|0-0-0000-0-0000-0000-|
|0-0-0000-0-0000-0000-|
|0-0-0000-0-0000-0000-|

times four

end.

To play the most songs, including Circle the Sky by MYCHILDREN MYBRIDE by ukulele, the most crucial basic ukulele chords to learn are C chord, D chord, G chord, and Em chord.
These set you up to play a ton of songs, and each of them is easy to master.

Leave a Reply

Your email address will not be published.