Crushed by the Cross by GWAR Ukulele Chords

Posted on

If you are looking for Crushed by the Cross ukulele chords, you already come to the best place.
You can play versatile instrument Crushed by the Cross using ukulele or guitar.
This song by GWAR can also be played by that instruments.
=

Crushed by the Cross chords has rhythm and included in The Blood of Gods (2017) album.
You can also find other musical style, including jazz ukulele chords, country music ukulele chords, pop ukulele chords, world music ukulele chords, and rock ukulele chords here.

Crushed by the Cross by GWAR Ukulele Chords


eb|-------------------------------------------------------------------------------|
Bb|-------------------------------------------------------------------------------|
Gb|-------------------------------------------------------------------------------|
Db|-------------------------------------------------------------------------------|
Ab|----------------------3-------------------------------------3------------------|
Eb|--0h2-2-2-2-5p2-2-2-2---2-2-2-2-0-2-5-2-3p2-2-2-2-5p2-2-2-2---2-2-2-2-0-2-5-2--|

PM . . . . . . . . . . . . . . . . . . . . . . . . . .


eb|----------------------------------------------------------------------------|
Bb|----------------------------------------------------------------------------|
Gb|----------------------------------------------------------------------8--8--|
Db|----------------------------------------------------------------------8--8--|
Ab|----------------------3-------------------------------------3---------6--6--|
Eb|--0h2-2-2-2-5p2-2-2-2---2-2-2-2-0-2-5-2-3p2-2-2-2-5p2-2-2-2---2-2-2-2-------|

PM . . . . . . . . . . . . . . . . . . . . . .


eb|-------------------------------------------------------------------------------|
Bb|-------------------------------------------------------------------------------|
Gb|-------------------------------------------------------------------------------|
Db|-------------------------------------------------------------------------------|
Ab|----------------------3-------------------------------------3------------------|
Eb|--0h2-2-2-2-5p2-2-2-2---2-2-2-2-0-2-5-2-3p2-2-2-2-5p2-2-2-2---2-2-2-2-0-2-5-2--|

PM . . . . . . . . . . . . . . . . . . . . . . . . . .


eb|-------------------------------------------------------------------------------|
Bb|-------------------------------------------------------------------------------|
Gb|-------------------------------------------------------------------------------|
Db|-------------------------------------------------------------------------------|
Ab|----------------------3-------------------------------------3---------5---6----|
Eb|--0h2-2-2-2-5p2-2-2-2---2-2-2-2-0-2-5-2-3p2-2-2-2-5p2-2-2-2---2-2-2-2---2---2--|

PM . . . . . . . . . . . . . . . . . . . . . .


eb|-------------------------------------------------------------------------------|
Bb|-------------------------------------------------------------------------------|
Gb|-------------------------------------------------------------------------------|
Db|-------------------------------------------------------------------------------|
Ab|----------------------3-------------------------------------3------------------|
Eb|--0h2-2-2-2-5p2-2-2-2---2-2-2-2-0-2-5-2-3p2-2-2-2-5p2-2-2-2---2-2-2-2-0-2-5-2--|

PM . . . . . . . . . . . . . . . . . . . . . . . . . .


eb|-------------------------------------------------------------------------------|
Bb|-------------------------------------------------------------------------------|
Gb|-------------------------------------------------------------------------------|
Db|-------------------------------------------------------------------------------|
Ab|----------------------3-------------------------------------3---------5---6----|
Eb|--0h2-2-2-2-5p2-2-2-2---2-2-2-2-0-2-5-2-3p2-2-2-2-5p2-2-2-2---2-2-2-2---2---2--|

PM . . . . . . . . . . . . . . . . . . . . . .


eb|-------------------------------------------------------------------------|
Bb|-------------------------------------------------------------------------|
Gb|-------------------------------------------------------------------------|
Db|-------------------------------------------------------------------------|
Ab|--------------------------3---------------------------3---------5---6----|
Eb|--5--5-5-5-5--5--6--6-6-6---6-5-3-0h2-2-2-2-5p2-2-2-2---2-2-2-2---2---2--| x3

PM . . . . . . . . . . . . . . . . . . .


eb|-----------------------------------|
Bb|-----------------------------------|
Gb|-----------------------------------|
Db|-----------------------------------|
Ab|--------------------------3--------|
Eb|--5--5-5-5-5--5--6--6-6-6---6-5-3--|

PM . . . . . . . . . .

[Post-Chorus]


eb|-------------------------------------------------------------------------------|
Bb|-------------------------------------------------------------------------------|
Gb|-------------------------------------------------------------------------------|
Db|-------------------------------------------------------------------------------|
Ab|----------------------3-------------------------------------3------------------|
Eb|--0h2-2-2-2-5p2-2-2-2---2-2-2-2-0-2-5-2-3p2-2-2-2-5p2-2-2-2---2-2-2-2-0-2-5-2--|

PM . . . . . . . . . . . . . . . . . . . . . . . . . .


eb|----------------------------------------------------------------------------|
Bb|----------------------------------------------------------------------------|
Gb|----------------------------------------------------------------------8--8--|
Db|----------------------------------------------------------------------8--8--|
Ab|----------------------3-------------------------------------3---------6--6--|
Eb|--0h2-2-2-2-5p2-2-2-2---2-2-2-2-0-2-5-2-3p2-2-2-2-5p2-2-2-2---2-2-2-2-------|

PM . . . . . . . . . . . . . . . . . . . . . .


eb|-------------------------------------------------------------------------------|
Bb|-------------------------------------------------------------------------------|
Gb|-------------------------------------------------------------------------------|
Db|-------------------------------------------------------------------------------|
Ab|----------------------3-------------------------------------3------------------|
Eb|--0h2-2-2-2-5p2-2-2-2---2-2-2-2-0-2-5-2-3p2-2-2-2-5p2-2-2-2---2-2-2-2-0-2-5-2--|

PM . . . . . . . . . . . . . . . . . . . . . . . . . .


eb|-------------------------------------------------------------------------------|
Bb|-------------------------------------------------------------------------------|
Gb|-------------------------------------------------------------------------------|
Db|-------------------------------------------------------------------------------|
Ab|----------------------3-------------------------------------3---------5---6----|
Eb|--0h2-2-2-2-5p2-2-2-2---2-2-2-2-0-2-5-2-3p2-2-2-2-5p2-2-2-2---2-2-2-2---2---2--|

PM . . . . . . . . . . . . . . . . . . . . . .


eb|-------------------------------------------------------------------------------|
Bb|-------------------------------------------------------------------------------|
Gb|-------------------------------------------------------------------------------|
Db|-------------------------------------------------------------------------------|
Ab|----------------------3-------------------------------------3------------------|
Eb|--0h2-2-2-2-5p2-2-2-2---2-2-2-2-0-2-5-2-3p2-2-2-2-5p2-2-2-2---2-2-2-2-0-2-5-2--|

PM . . . . . . . . . . . . . . . . . . . . . . . . . .


eb|-------------------------------------------------------------------------------|
Bb|-------------------------------------------------------------------------------|
Gb|-------------------------------------------------------------------------------|
Db|-------------------------------------------------------------------------------|
Ab|----------------------3-------------------------------------3---------5---6----|
Eb|--0h2-2-2-2-5p2-2-2-2---2-2-2-2-0-2-5-2-3p2-2-2-2-5p2-2-2-2---2-2-2-2---2---2--|

PM . . . . . . . . . . . . . . . . . . . . . .


eb|-------------------------------------------------------------------------|
Bb|-------------------------------------------------------------------------|
Gb|-------------------------------------------------------------------------|
Db|-------------------------------------------------------------------------|
Ab|--------------------------3---------------------------3---------5---6----|
Eb|--5--5-5-5-5--5--6--6-6-6---6-5-3-0h2-2-2-2-5p2-2-2-2---2-2-2-2---2---2--| x3

PM . . . . . . . . . . . . . . . . . . .


eb|-----------------------------------|
Bb|-----------------------------------|
Gb|-----------------------------------|
Db|-----------------------------------|
Ab|--------------------------3--------|
Eb|--5--5-5-5-5--5--6--6-6-6---6-5-3--|

PM . . . . . . . . . .

[Into Bridge]


eb|---------------------------------------------------------------------------|
Bb|---------------------------------------------------------------------------|
Gb|---------------------------------------------------------------------------|
Db|---------------------------------------------------------------------------|
Ab|----------------------3---------5---5---------5---5---------5---5----------|
Eb|--0h2-2-2-2-5p2-2-2-2---2-2-2-2---2---2-2-2-2---2---2-2-2-2---2---2-2-2-2--|

PM . . . . . . . . . . . . . . . . . .


eb|------------------------------------------------------------|
Bb|------------------------------------------------------------|
Gb|--8-8---7-7-------------------------------------------------|
Db|--8-8---7-7---8-8---7-7-----4--4-4-4-4-4-4-4-4-4-4-4-4-4----|
Ab|--6-6---5-5---8-8---7-7-----4--4-4-4-4-4-4-4-4-4-4-4-4-4----|
Eb|--------------6-6---5-5---0-2--2-2-2-2-2-2-2-2-2-2-2-2-2-0--|

PM . . . . . . . . . . . . .


eb|-----------------------------------------------------------------------|
Bb|-----------------------------------------------------------------------|
Gb|------7---7-9-10~-----7---10-9-7-------7---7-9-10~-----7---10-9-7------|
Db|------7---7-9-10~-----7---10-9-7-8-7---7---7-9-10~-----7---10-9-7-8-7--|
Ab|------5---5-7--8~-----5----8-7-5-8-7---5---5-7--8~-----5----8-7-5-8-7--|
Eb|--0-0---0---------0-0---0--------6-5-0---0---------0-0---0--------6-5--|

PM . . . . . . . . . . .


eb|-------------------------------------------------------------------|
Bb|-------------------------------------------------------------------|
Gb|----7---7-9-10~-----7---10-9-7-------7---7-9-10~-----7---10-9-7----|
Db|----7---7-9-10~-----7---10-9-7-8-7---7---7-9-10~-----7---10-9-7-8--|
Ab|----5---5-7--8~-----5----8-7-5-8-7---5---5-7--8~-----5----8-7-5-8--|
Eb|--0---0---------0-0---0--------6-5-0---0---------0-0---0--------6--|

PM . . . . . . . . . .

[Choir Section]


eb|-----------------------------------|
Bb|-----------------------------------|
Gb|-----------------------------------|
Db|--7-7-7-7-7-7-7-7-6---3-6~---------|
Ab|--7-7-7-7-7-7-7-7-6---3-6~--8-7-5--|
Eb|--5-5-5-5-5-5-5-5-4-0-1-4~--8-7-5--| x3

PM . . . . .


eb|-------------------------------|
Bb|-------------------------------|
Gb|-------------------------------|
Db|--7-7-7-7-7-7-7-7--6--6--6--6--|
Ab|--7-7-7-7-7-7-7-7--6--6--6--6--|
Eb|--5-5-5-5-5-5-5-5--4--4--4--4--|

[Bridge II]


eb|-----------------------------------------------------------------------|
Bb|-----------------------------------------------------------------------|
Gb|------7---7-9-10~-----7---10-9-7-------7---7-9-10~-----7---10-9-7------|
Db|------7---7-9-10~-----7---10-9-7-8-7---7---7-9-10~-----7---10-9-7-8-7--|
Ab|------5---5-7--8~-----5----8-7-5-8-7---5---5-7--8~-----5----8-7-5-8-7--|
Eb|--0-0---0---------0-0---0--------6-5-0---0---------0-0---0--------6-5--|

PM . . . . . . . . . . .


eb|-------------------------------------------------------------------|
Bb|-------------------------------------------------------------------|
Gb|----7---7-9-10~-----7---10-9-7-------7---7-9-10~-----7---10-9-7----|
Db|----7---7-9-10~-----7---10-9-7-8-7---7---7-9-10~-----7---10-9-7-8--|
Ab|----5---5-7--8~-----5----8-7-5-8-7---5---5-7--8~-----5----8-7-5-8--|
Eb|--0---0---------0-0---0--------6-5-0---0---------0-0---0--------6--|

PM . . . . . . . . . .

[Choir Section II]


eb|-----------------------------------|
Bb|-----------------------------------|
Gb|-----------------------------------|
Db|--7-7-7-7-7-7-7-7-6---3-6~---------|
Ab|--7-7-7-7-7-7-7-7-6---3-6~--8-7-5--|
Eb|--5-5-5-5-5-5-5-5-4-0-1-4~--8-7-5--| x3

PM . . . . .


eb|-------------------------------|
Bb|-------------------------------|
Gb|-------------------------------|
Db|--7-7-7-7-7-7-7-7--6--6--6--6--|
Ab|--7-7-7-7-7-7-7-7--6--6--6--6--|
Eb|--5-5-5-5-5-5-5-5--4--4--4--4--|

[Rhythm Under Solo] (after bass break)


eb|-------------------------------------------------------------------------------|
Bb|-------------------------------------------------------------------------------|
Gb|-------------------------------------------------------------------------------|
Db|-------------------------------------------------------------------------------|
Ab|----------------------3-------------------------------------3------------------|
Eb|--0h2-2-2-2-5p2-2-2-2---2-2-2-2-0-2-5-2-3p2-2-2-2-5p2-2-2-2---2-2-2-2-0-2-5-2--|

PM . . . . . . . . . . . . . . . . . . . . . . . . . .


eb|----------------------------------------------------------------------------|
Bb|----------------------------------------------------------------------------|
Gb|----------------------------------------------------------------------8--8--|
Db|----------------------------------------------------------------------8--8--|
Ab|----------------------3-------------------------------------3---------6--6--|
Eb|--0h2-2-2-2-5p2-2-2-2---2-2-2-2-0-2-5-2-3p2-2-2-2-5p2-2-2-2---2-2-2-2-------|

PM . . . . . . . . . . . . . . . . . . . . . .

[Crushed By The Cross]


eb|-------------------------------------------------------------------------------|
Bb|-------------------------------------------------------------------------------|
Gb|-------------------------------------------------------------------------------|
Db|-------------------------------------------------------------------------------|
Ab|----------------------3-------------------------------------3------------------|
Eb|--0h2-2-2-2-5p2-2-2-2---2-2-2-2-0-2-5-2-3p2-2-2-2-5p2-2-2-2---2-2-2-2-0-2-5-2--|

PM . . . . . . . . . . . . . . . . . . . . . . . . . .


eb|-------------------------------------------------------------------------------|
Bb|-------------------------------------------------------------------------------|
Gb|-------------------------------------------------------------------------------|
Db|-------------------------------------------------------------------------------|
Ab|----------------------3-------------------------------------3---------5---6----|
Eb|--0h2-2-2-2-5p2-2-2-2---2-2-2-2-0-2-5-2-3p2-2-2-2-5p2-2-2-2---2-2-2-2---2---2--|

PM . . . . . . . . . . . . . . . . . . . . . .


eb|-------------------------------------------------------------------------------|
Bb|-------------------------------------------------------------------------------|
Gb|-------------------------------------------------------------------------------|
Db|-------------------------------------------------------------------------------|
Ab|----------------------3-------------------------------------3------------------|
Eb|--0h2-2-2-2-5p2-2-2-2---2-2-2-2-0-2-5-2-3p2-2-2-2-5p2-2-2-2---2-2-2-2-0-2-5-2--|

PM . . . . . . . . . . . . . . . . . . . . . . . . . .


eb|-------------------------------------------------------------------------------|
Bb|-------------------------------------------------------------------------------|
Gb|-------------------------------------------------------------------------------|
Db|-------------------------------------------------------------------------------|
Ab|----------------------3-------------------------------------3---------5---6----|
Eb|--0h2-2-2-2-5p2-2-2-2---2-2-2-2-0-2-5-2-3p2-2-2-2-5p2-2-2-2---2-2-2-2---2---2--|

PM . . . . . . . . . . . . . . . . . . . . . .


eb|-------------------------------------------------------------------------|
Bb|-------------------------------------------------------------------------|
Gb|-------------------------------------------------------------------------|
Db|-------------------------------------------------------------------------|
Ab|--------------------------3---------------------------3---------5---6----|
Eb|--5--5-5-5-5--5--6--6-6-6---6-5-3-0h2-2-2-2-5p2-2-2-2---2-2-2-2---2---2--| x3

PM . . . . . . . . . . . . . . . . . . .


eb|-----------------------------------|
Bb|-----------------------------------|
Gb|-----------------------------------|
Db|-----------------------------------|
Ab|--------------------------3--------|
Eb|--5--5-5-5-5--5--6--6-6-6---6-5-3--|

PM . . . . . . . . . .


eb|-----------------------------------------|
Bb|-----------------------------------------|
Gb|-----------------------------------------|
Db|-----------------------------------------|
Ab|----------------------3---------5---6----|
Eb|--0h2-2-2-2-5p2-2-2-2---2-2-2-2---2---2--| x3

PM . . . . . . . . .


eb|--------------------------------------|
Bb|--------------------------------------|
Gb|--------------------------------7--8--|
Db|--------------------------------7--8--|
Ab|----------------------3---------5--6--|
Eb|--0h2-2-2-2-5p2-2-2-2---2-2-2-2-------|

PM . . . . . . . . .

To play the this songs, including Crushed by the Cross by GWAR by ukulele, the most important basic ukulele chords to learn are C chord, D chord, G chord, and Em chord.
These set you up to play a many of songs, and each of them is easy to learn.

Leave a Reply

Your email address will not be published.