Darlin’ Do Not Fear by Brett Dennen Ukulele Chords

Posted on

If you are searching for Darlin’ Do Not Fear ukulele chords, you already visit to the right place.
You can play versatile instrument Darlin’ Do Not Fear using ukulele or guitar.
This song by Brett Dennen can also be played by that instruments.
=

Darlin’ Do Not Fear chords has rhythm and included in So Much More (2006) album.
You can also get other musical genres, including jazz ukulele chords, country music ukulele chords, pop ukulele chords, world music ukulele chords, and rock ukulele chords here.

Darlin’ Do Not Fear by Brett Dennen Ukulele Chords


-------------------------------------------------------------------------------

Darlin’ Do Not Fear- Brett Dennen


-------------------------------------------------------------------------------

Tuning:Standard

The this song is pretty basic, just needs a full band for the best effect.
I have left out most of the slides, listen to see when to slide etc…

Intro


e|---------8-----------------------------------3-------------------------------|
B|----9-------9----/11-----9---8---6---4-------/9------------------------------|
G|-----------------------------------------------------------------------------|
D|-----------------------------------------------------------------------------|
A|-----------------------------------------------------------------------------|
E|-----------------------------------------------------------------------------|


e|--11---11---9-----9-------------------------------------------11-------------|
B|-------------------------13-----11-----9--11--9------------------------------|
G|-----------------------------------------------------8-----------------------|
D|-----------------------------------------------------------------------------|
A|-----------------------------------------------------------------------------|
E|-----------------------------------------------------------------------------|


e|----9----8----6-----------6-------------------3-----4------------------------|
B|----------------------9----------9-------4-----------------------------------|
G|-----------------------------------------------------------------------------|
D|-----------------------------------------------------------------------------|
A|-----------------------------------------------------------------------------|
E|-----------------------------------------------------------------------------|


e|-----------------------------------------------------------------------------|
B|-----9---9-9----9---9-9----8---8-8-------------------------------------------|
G|-----------------------------------------------------------------------------|
D|-----------------------------------------------------------------------------|
A|-----------------------------------------------------------------------------|
E|-----------------------------------------------------------------------------|

This is the verse, and also pretty much the solo.

1, 2, 3, 2, 1, 2, 3, 2, then 4 for verse

To play the this songs, including Darlin’ Do Not Fear by Brett Dennen by ukulele, the most crucial basic ukulele chords to learn are C chord, D chord, G chord, and Em chord.
These set you up to play a many of songs, and each of them is easy to learn.

Leave a Reply

Your email address will not be published.