Dawn of the Dead by Michale Graves Ukulele Chords

Posted on

If you are searching for Dawn of the Dead ukulele chords, you’ve come to the right site.
You can play versatile instrument Dawn of the Dead using ukulele or guitar.
This song by Michale Graves can also be played by that instruments.
=

Dawn of the Dead chords has rhythm and included in Lost Skeleton Returns (2013) album.
You can also get another musical genres, including jazz ukulele chords, country music ukulele chords, pop ukulele chords, world music ukulele chords, and rock ukulele chords here.

Dawn of the Dead by Michale Graves Ukulele Chords

intro


------------------------------------------------|
------------------------------------------------|
------------------------------------------------|
---------------77777-77777----------------------|
---33333-33333-77777-77777-44444-44444----------|
12/11111-11111-55555-55555-22222-22222-(11)-9-7-|
----------------------------------------------------|
----------------------------------------------------|
----------------------------------------------------|
---------------77777-77777-44444-44444--13-11-9-----|
---33333-33333-77777-77777-44444-44444--13-11-9-----|
---11111-11111-55555-55555-22222-22222-(11)-9-7-0-0-|

Verse


--------------------------------------|
--------------------------------------|
--------------------------------------|
-----------7~--------4~--------13-----|
-3~--------7~--------4~--------13-----|
-1-0-0-0-0-5-0-0-0-0-2-0-0-0-0-11-9-7-|

Chorus
guitar 1


-------------|
-------------|
-------------|
-------------|
77777--------|

55555-7-9-11-|

guitar 2


-----------|
-----------|
-----------|

[77777-44444]
[77777-44444]
[55555-22222]
fill back into verse


-----------|
-----------|
-----------|
77777------|

[77777-22222]55555-00000

To play the most songs, including Dawn of the Dead by Michale Graves by ukulele, the most important basic ukulele chords to learn are C chord, D chord, G chord, and Em chord.
These set you up to play a ton of songs, and each of them is easy to learn.

Gravatar Image
Like to play Ukulele and Sudoku Game

Leave a Reply

Your email address will not be published. Required fields are marked *