De straatnaambordjesblues by Harrie Jekkers Ukulele Chords

Posted on

If you are looking for De straatnaambordjesblues ukulele chords, you’ve visit to the best site.
You can play versatile instrument De straatnaambordjesblues using ukulele or guitar.
This song by Harrie Jekkers can also be played by that instruments.
=

De straatnaambordjesblues chords has rhythm and included in De man in de wolken (1991) album.
You can also find other musical genres, including jazz ukulele chords, country music ukulele chords, pop ukulele chords, world music ukulele chords, and rock ukulele chords here.

De straatnaambordjesblues by Harrie Jekkers Ukulele Chords

Het gelijk van de koffietent
Straatnaambordjesblues

Het gelijk van de koffietent, 1992

Tab van: Alexander Westers
e-mail: infernal_purge@hotmail.com

Stemming:
Open G

d|
B|
G|
D|
G|
D|

Deze snaren worden met de duim bespeeld.

Onderaan de tab staan de vingerzettingen.

Legenda:
/ slide
let ring
^- bend up and back
. staccato
> emphasized note
p pull off
x dead strum

Kort woord vooraf:
Het uitzoeken en uitschrijven van deze tablatuur was een rotklus.
Maar ik heb het graag gedaan.
Dus veel plezier ermee!

Intro:


|--------------|------------------------|
|--------------|------------------------|
|--------------|------------------------|
|--------------|------------------------|
|-2/7--5-4-2-|------------------------|
|--------------|-0--2-3-4^-^-^-^-^----|

> > >


|--------0-----------|----0-------------|
|------0----------0--|------1--------0--|
|-2/3-------0-----0--|-2-------2-----0--|
|--------0--------0--|------0--------0--|
|-0------------------|-2----------------|
|-------------0------|-----------0------|

>. >.


|----------------0--|--------0----------|
|----1----3~~-------|------0---------0--|
|-2------------0----|-2/3------0-----0--|
|------0------------|--------0-------0--|
|-2-----------------|-0-----------------|
|-------------------|------------0------|

> >.


|--------0---------0----|---------5----5-----|
|------0------0------0--|----5----5------5---|
|-2/3--------3----------|-5--------------5---|
|--------0-----------0--|------5---------5---|
|-0---------------------|-5------------------|
|---------------0-------|-----------5--------|

D7?


|-------10p7--10-|------------------------|
|----8-----------|------------------------|
|-7--------------|------------------------|
|----------------|------------------------|
|-7--------------|------------------------|
|----------------|-0--2-3-4^-^-^-^-^----|

x x x >

Couplet 1:
?k Loop door de
Adriaan van Ostadelaan


|--------0-----------|----0---------------|
|------0----------0--|------1--------0----|
|-2/3-------0-----0--|-2-------2-----0--0-|
|--------0--------0--|------0--------0----|
|-0------------------|-2------------------|
|-------------0------|-----------0--------|

>. >.

En vraag me af


|----0--------------|---------0-0-----|
|------1-------0----|-----3~~---------|
|-2-------2----0--0-|-----------------|
|------0-------0----|-----------------|
|-2-----------------|-2---------------|
|-----------0-------|-----------------|

>.

Wat heb die Adriaan gedaan


|--------0------------|--------0------------|
|------0---------0----|------0---------0----|
|-2/3-------0----0--0-|-2/3-------0----0--0-|
|--------0-------0----|--------0-------0----|
|-0-------------------|-0-------------------|
|-------------0-------|-------------0-------|

>. >.


|--------0------------|
|------0---------0----|
|-2/3-------0----0--0-|
|--------0-------0----|
|-0-------------------|
|-------------0-------|

>.

Dat ie hier met zijn naam op een bord kwam te staan


|--------0---------0----|---------5----5-----|
|------0------0------0--|----5----5------5---|
|-2/3--------3----------|-5--------------5---|
|--------0-----------0--|------5---------5---|
|-0---------------------|-5------------------|
|---------------0-------|-----------5--------|

In de Adriaan
D7?


|-------------------|
|-------------8p7---|
|-7-----------------|
|-------------9p7---|
|-7-----------------|
|-------------------|

van Ostadelaan Yeah


|--------0-----------|----0---------------|
|------0----------0--|------1--------0----|
|-2/3-------0-----0--|-2-------2-----0--0-|
|--------0--------0--|------0--------0----|
|-0------------------|-2------------------|
|-------------0------|-----------0--------|

>. >.

Ride on Yeah Dan komt het


|-------------------|------------------|
|------0--0-----0---|-1--1-------------|
|-0----0--0-----0---|-2--2-------------|
|------0--------0---|------------------|
|-0-----------------|-2----------------|
|-----------0-------|------0---2---4---|

>.

Couplet 2:
Jozef Isralplein


|--------0-----------|----0---------------|
|------0----------0--|------1--------0----|
|-2/3-------0-----0--|-2-------2-----0--0-|
|--------0--------0--|------0--------0----|
|-0------------------|-2------------------|
|-------------0------|-----------0--------|

>. >.

En ik vraag me af: Wie zou die Isral zijn


|---------0-0-----|--------0-----------|
|-----3~~---------|------0----------0--|
|-----------------|-2/3-------0-----0--|
|-----------------|--------0--------0--|
|-2---------------|-0------------------|
|-----------------|-------------0------|

>.

Dat ie zomaar hier in Holland een plein staat te zijn


|--------0---------0----|---------5----5-----|
|------0------0------0--|----5----5------5---|
|-2/3--------3----------|-5--------------5---|
|--------0-----------0--|------5---------5---|
|-0---------------------|-5------------------|
|---------------0-------|-----------5--------|

En zou er ook in Isral een Jozef Hollandplein zijn?


|-------------|--------------------|
|-------------|--------------------|
|-------------|--------------------|
|-------------|--------------------|
|-7--5--4--2--|--------------------|
|-------------|-0--2--3--4^-^-^----|

Refrein:
Wie moet je zijn? Wat moet je doen
C G?


|---------5----5-----|---0---------0------|
|----5----5------5---|---0----0----0----0-|
|-5--------------5---|--------4---------4-|
|------5---------5---|-----5---------5----|
|-5------------------|--------------------|
|-----------5--------|-5--------5---------|

Voor je naam op een straat of een plein of een plantsoen


|----0---------0------|--------------0----|
|------1---------1----|-0----1----3-------|
|-2-------2---------2-|-0----2----4-------|
|------0---------0----|------0---------0--|
|-2-------------------|-2-----------------|
|-----------0---------|-----------0-------|

Hoe groot moet je zijn? Hoe dood moet je zijn
C G?


|---------5----5-----|---0---------0------|
|----5----5------5---|---0----0----0----0-|
|-5--------------5---|--------4---------4-|
|------5---------5---|-----5---------5----|
|-5------------------|--------------------|
|-----------5--------|-5--------5---------|

Voordat je naam op een straatnaambordje komt te staan


|------------------|-------------------|
|------0--------0--|------1--------1---|
|-0----0----0---0--|-2----2----2---2---|
|------0--------0--|------0--------0---|
|-0----------------|-2-----------------|
|-----------0------|-----------0-------|

.

Woopiedoo YEAH!!!

Couplet 3:
En dan komt de Peerke Donderslaan


|--------0-----------|----0---------------|
|------0----------0--|------1--------0----|
|-2/3-------0-----0--|-2-------2-----0--0-|
|--------0--------0--|------0--------0----|
|-0------------------|-2------------------|
|-------------0------|-----------0--------|

Ik blijf verwonderd onder ?t Peerke Donderbordje staan


|-------------0-0---|--------0-----------|
|---1----3~~--------|------0----------0--|
|---2---------------|-2/3-------0-----0--|
|-----0---------0---|--------0--------0--|
|-2-----------------|-0------------------|
|----------0--------|-------------0------|

Waarschijnlijk heb die Donder nooit een flikker gedaan


|--------0---------0----|---------5----5-----|
|------0------0------0--|----5----5------5---|
|-2/3--------3----------|-5--------------5---|
|--------0-----------0--|------5---------5---|
|-0---------------------|-5------------------|
|---------------0-------|-----------5--------|

Je zou ?m toch met z?n eigen bordje voor z?n Peerke Donder slaan


|-------------|--------------------|
|-------------|--------------------|
|-------------|--------------------|
|-------------|--------------------|
|-7--5--4--2--|--------------------|
|-------------|-0--2--3--4^-^-^----|

Refrein:
Wie moet je zijn? Wat moet je doen
C G?


|---------5----5-----|---0---------0------|
|----5----5------5---|---0----0----0----0-|
|-5--------------5---|--------4---------4-|
|------5---------5---|-----5---------5----|
|-5------------------|--------------------|
|-----------5--------|-5--------5---------|

Voor je naam op een straat of een plein of een plantsoen


|----0---------0------|--------------0----|
|------1---------1----|-0----1----3-------|
|-2-------2---------2-|-0----2----4-------|
|------0---------0----|------0---------0--|
|-2-------------------|-2-----------------|
|-----------0---------|-----------0-------|

Hoe groot moet je zijn? Hoe dood moet je zijn
C G?


|---------5----5-----|---0---------0------|
|----5----5------5---|---0----0----0----0-|
|-5--------------5---|--------4---------4-|
|------5---------5---|-----5---------5----|
|-5------------------|--------------------|
|-----------5--------|-5--------5---------|

Voordat je naam op een straatnaambordje komt te staan


|------------------|---------------------------|
|------0--------0--|------1--------1-------1---|
|-0----0----0---0--|-2----2----2---2---2---2---|
|------0--------0--|------0--------0-------0---|
|-0----------------|-2-------------------------|
|-----------0------|-----------0-------0-------|

Couplet 4:
En dan komt de Monsieur Bekkerslaan


|--------0-----------|----0---------------|
|------0----------0--|------1--------0----|
|-2/3-------0-----0--|-2-------2-----0--0-|
|--------0--------0--|------0--------0----|
|-0------------------|-2------------------|
|-------------0------|-----------0--------|

Nou ja, zo nooit van gehoord, al hebt ie vast wel wat gedaan


|-------------0-0---|--------0-----------|
|---1----3~~--------|------0----------0--|
|---2---------------|-2/3-------0-----0--|
|-----0---------0---|--------0--------0--|
|-2-----------------|-0------------------|
|----------0--------|-------------0------|

Najaa, die Monsieur die heeft er nou wel lang genoeg gestaan


|--------0---------0----|---------5----5-----|
|------0------0------0--|----5----5------5---|
|-2/3--------3----------|-5--------------5---|
|--------0-----------0--|------5---------5---|
|-0---------------------|-5------------------|
|---------------0-------|-----------5--------|

H, het spijt me voor je Bekkers, maar je bordje gaat eraan


|-------------|--------------------|
|-------------|--------------------|
|-------------|--------------------|
|-------------|--------------------|
|-7--5--4--2--|--------------------|
|-------------|-0--2--3--4^-^-p0---|

Couplet 5:
Ik klim omhoog in de lantaarnpaal


|--------0-----------|----0---------------|
|------0----------0--|------1--------0----|
|-2/3-------0-----0--|-2-------2-----0--0-|
|--------0--------0--|------0--------0----|
|-0------------------|-2------------------|
|-------------0------|-----------0--------|

En fluit terwijl ?k n streepje door de B heen haal


|-------------0-0---|--------0-----------|
|---1----3~~--------|------0----------0--|
|---2---------------|-2/3-------0-----0--|
|-----0---------0---|--------0--------0--|
|-2-----------------|-0------------------|
|----------0--------|-------------0------|

Dan met een viltstift een J?tje, en het werk is gedaan


|--------0---------0----|---------5----5-----|
|------0------0------0--|----5----5------5---|
|-2/3--------3----------|-5--------------5---|
|--------0-----------0--|------5---------5---|
|-0---------------------|-5------------------|
|---------------0-------|-----------5--------|

En hup, daar hangt de Monsieur Jekkerslaan!


|-------------|--------------------|
|-------------|--------------------|
|-------------|--------------------|
|-------------|--------------------|
|-7--5--4--2--|--------------------|
|-------------|-0--2--3--4^-^-^----|

Refrein:
Zo moet je dat doen. En zo moet je zijn
C G?


|---------5----5-----|---0---------0------|
|----5----5------5---|---0----0----0----0-|
|-5--------------5---|--------4---------4-|
|------5---------5---|-----5---------5----|
|-5------------------|--------------------|
|-----------5--------|-5--------5---------|

En daar hoef je geen beroemde dooie schilder voor te zijn


|----0---------0------|--------------0----|
|------1---------1----|-0----1----3-------|
|-2-------2---------2-|-0----2----4-------|
|------0---------0----|------0---------0--|
|-2-------------------|-2-----------------|
|-----------0---------|-----------0-------|

Geen Jean-Paul Sartre, geen Simone de Beauvoir
C G?


|---------5----5-----|---0---------0------|
|----5----5------5---|---0----0----0----0-|
|-5--------------5---|--------4---------4-|
|------5---------5---|-----5---------5----|
|-5------------------|--------------------|
|-----------5--------|-5--------5---------|

Alleen je naam kunnen schrijven en genieten maar!


|------------------|--------------------|-------------------|
|------0--------0--|------1---------1---|------1--------1---|
|-0----0----0---0--|-2----2----2----2---|-2----2----2---2---|
|------0--------0--|------0---------0---|------0--------0---|
|-0----------------|-2------------------|-------------------|
|-----------0------|-----------0--------|0------------------|

Couplet 6:
Ik loop door de Monsieur Jekkerslaan


|--------0-----------|----0---------------|
|------0----------0--|------1--------0----|
|-2/3-------0-----0--|-2-------2-----0--0-|
|--------0--------0--|------0--------0----|
|-0------------------|-2------------------|
|-------------0------|-----------0--------|

En ik zie overal Monsieur Jekkers staan


|-------------0-0---|--------0-----------|
|---1----3~~--------|------0----------0--|
|---2---------------|-2/3-------0-----0--|
|-----0---------0---|--------0--------0--|
|-2-----------------|-0------------------|
|----------0--------|-------------0------|

En ik roep midden op het Monsieur Jekkersplein


|--------0---------0----|---------5----5-----|
|------0------0------0--|----5----5------5---|
|-2/3--------3----------|-5--------------5---|
|--------0-----------0--|------5---------5---|
|-0---------------------|-5------------------|
|---------------0-------|-----------5--------|

Het is te gek
D7?


|-------------|---------------|
|----8-7------|---------------|
|-7--7-7------|---------------|
|----9-7------|---------------|
|-7--7-7------|---------------|
|-------------|-0--2--4--5----|

JAAAAAAAAAAAAAAAAAAAAAAAAAAAAAA
G (23x)


|-0-0-0-0-0-0-0-0-0-0-0-0-0-0-0-0-0-0-0-0-0-0-0-|
|-0-0-0-0-0-0-0-0-0-0-0-0-0-0-0-0-0-0-0-0-0-0-0-|
|-0-0-0-0-0-0-0-0-0-0-0-0-0-0-0-0-0-0-0-0-0-0-0-|
|-0-0-0-0-0-0-0-0-0-0-0-0-0-0-0-0-0-0-0-0-0-0-0-|
|-0-0-0-0-0-0-0-0-0-0-0-0-0-0-0-0-0-0-0-0-0-0-0-|
|-0-0-0-0-0-0-0-0-0-0-0-0-0-0-0-0-0-0-0-0-0-0-0-|

(Daarom heet deze stemming dus open G)

Vingerzettingen:
o open snaar
1 wijsvinger
2 middelvinger
3 ringvinger
4 pink
() versierende noten
[] barr


o-----|-----|-----|-----|-----|-----|-----|-----|-----|-----|-----|-----||
o-----|-----|-----|-----|-----|-----|-----|-----|-----|-----|-----|-----||
o-----|-(2--/--2)-|-----|-----|-----|-----|-----|-----|-----|-----|-----||
o-----|-----|-----|-----|-----|-----|-----|-----|-----|-----|-----|-----||
o-----|-----|-----|-----|-----|-----|-----|-----|-----|-----|-----|-----||
o-----|-----|-----|-----|-----|-----|-----|-----|-----|-----|-----|-----||

o o 8

G?


o-----|-----|-----|-----|-----|-----|-----|-----|-----|-----|-----|-----||
|-----|-----|-----|--1--|-----|-----|-----|-----|-----|-----|-----|-----||
o-----|-----|-----|-----|-----|-----|-----|-----|-----|-----|-----|-----||
|-----|-----|-----|-----|--3--|-----|-----|-----|-----|-----|-----|-----||
o-----|-----|-----|-----|-----|-----|-----|-----|-----|-----|-----|-----||
|-----|-----|-----|-----|--2--|-----|-----|-----|-----|-----|-----|-----||

o o 8


o-----|-----|-----|-----|-----|-----|-----|-----|-----|-----|-----|-----||
|--1--|-----|-(4)-|-----|-----|-----|-----|-----|-----|-----|-----|-----||
|-----|--3--|-----|-----|-----|-----|-----|-----|-----|-----|-----|-----||
o-----|-----|-----|-----|-----|-----|-----|-----|-----|-----|-----|-----||
|-----|--2--|-----|-----|-----|-----|-----|-----|-----|-----|-----|-----||
o-----|-----|-----|-----|-----|-----|-----|-----|-----|-----|-----|-----||

o o 8

D7?


|-----|-----|-----|-----|-----|-----|--|-----|-----|-(4)-|-----|-----||
|-----|-----|-----|-----|-----|-----|--|-(2)-|-----|-----|-----|-----||
|-----|-----|-----|-----|-----|-----|--|-----|-----|-----|-----|-----||
|-----|-----|-----|-----|-----|-----|--|-----|-(3)-|-----|-----|-----||
|-----|-----|-----|-----|-----|-----|--|-----|-----|-----|-----|-----||
|-----|-----|-----|-----|-----|-----|--|-----|-----|-----|-----|-----||

o o 8


|-----|-----|-----|-----|--|-----|-----|-----|-----|-----|-----|-----||
|-----|-----|-----|-----|--|-----|-----|-----|-----|-----|-----|-----||
|-----|-----|-----|-----|--|-----|-----|-----|-----|-----|-----|-----||
|-----|-----|-----|-----|--|-----|-----|-----|-----|-----|-----|-----||
|-----|-----|-----|-----|--|-----|-----|-----|-----|-----|-----|-----||
|-----|-----|-----|-----|--|-----|-----|-----|-----|-----|-----|-----||

o o 8

To play the this songs, including De straatnaambordjesblues by Harrie Jekkers by ukulele, the most crucial basic ukulele chords to learn are C chord, D chord, G chord, and Em chord.
These set you up to play a many of songs, and each of them is easy to learn.

Leave a Reply

Your email address will not be published.