Decency by Balthazar Ukulele Chords

Posted on

If you are looking for Decency ukulele chords, you have visit to the best site.
You can play versatile instrument Decency using ukulele or guitar.
This song by Balthazar can also be played by that instruments.
=

Decency chords has rhythm and included in Thin Walls (2015) album.
You can also get another musical style, including jazz ukulele chords, country music ukulele chords, pop ukulele chords, world music ukulele chords, and rock ukulele chords here.

Decency by Balthazar Ukulele Chords

Tuning:Standard

Intro:


e|---------------------------------------------------------------------------|
B|---------------------------------------------------------------------------|
G|---------------------------------------------------------------------------|
D|---------------------------------------------------------------------------|
A|---7---3---5------------7---3----5-----------------------------------------|
E|--------------7----2--3------------7---------------------------------------|

Violin part:


e|---------------------------------------------------------------------------
B|----/17--15--17~~~--/13-13--15--12~~-----11-12-----------------------------
G|---------------------------------------------------------------------------
D|---------------------------------------------------------------------------
A|---------------------------------------------------------------------------
E|---------------------------------------------------------------------------
---------------------------------------------------------------------------|
----/17--15--17~~~--/13-15--12~~-----11-12-------------------------------|
---------------------------------------------------------------------------|X2
---------------------------------------------------------------------------|
---------------------------------------------------------------------------|
---------------------------------------------------------------------------|

These notes are played only once

Verse:


We took the moon
Right from the Sky

We took it down, caged it in
Where forsaken lie

But guess we’ve been rats
Just long enough

Nothing but chewing
On those strings of love

Chorus:


e|---------------------------------------------------------------------------|
B|---------------------------------------------------------------------------|
G|---------------------------------------------------------------------------|
D|---------------------------------------------------------------------------| X2
A|---7---3---5------------7---3----5----2-5--------------------------------|
E|--------------7----2--3----------------------------------------------------|

only the first time

While the moon slips out the door
We keep asking back for more
It’s What we came here for
If she won’t see us anymore
Then what Will we sing
What is it we’ll shout out for

Verse 2:
We leave this trace
We’re on the run
We’ll keep our ways
Hide for no one
Guess we’ve been rats
For quite a While
Lacking any
Decency and style

To play the this songs, including Decency by Balthazar by ukulele, the most important basic ukulele chords to learn are C chord, D chord, G chord, and Em chord.
These set you up to play a ton of songs, and each of them is easy to master.

Leave a Reply

Your email address will not be published.