Decks Dark by Radiohead Ukulele Chords

Posted on

If you are looking for Decks Dark ukulele chords, you’ve come to the right place.
You can play versatile instrument Decks Dark using ukulele or guitar.
This song by Radiohead can also be played by that instruments.
=

Decks Dark chords has rhythm and included in A Moon Shaped Pool (2016) album.
You can also get another musical style, including jazz ukulele chords, country music ukulele chords, pop ukulele chords, world music ukulele chords, and rock ukulele chords here.

Decks Dark by Radiohead Ukulele Chords


Capo 5th fret

(Part 1)

[A/C#]


e|---0-------0-------0-------0---------|
B|-----2-------1-------3-------2-------|
G|-------2-------2-------2-------2-----|
D|---------2-------3-------0-----------|
A|---------------------------------4---|
E|-------------------------------------|

And in your life —– there comes a [A/C#]darkness

[A/C#]


e|---0-------0-------0-------0---------|
B|-----1-------3-------3-------2-------|
G|-------2-------0-------2-------2-----|
D|---------3-------0-------0-----------|
A|---------------------------------4---|
E|-------------------------------------|

This spacecraft, blocking out the [A/C#]sky

[A/C#]


e|---0--------0-------0---------|
B|-----1--------3-------2-------|
G|-------2--------2-------2-----|
D|---------3--------0-----------|
A|--------------------------4---|
E|------------------------------|

And there’s nowhere —– to [A/C#]hide

[A/C#]


e|---0-------0-------0-------0---------|
B|-----1-------3-------3-------2-------|
G|-------2-------0-------2-------2-----|
D|---------3-------0-------0-----------|
A|---------------------------------4---|
E|-------------------------------------|

You run to look back, and you cover your [A/C#]ears

[A/C#]


e|---0--------0-------0---------|
B|-----1--------3-------2-------|
G|-------2--------2-------2-----|
D|---------3--------0-----------|
A|--------------------------4---|
E|------------------------------|

But it’s the loudest sound —– you’ve ever [A/C#]heard

[A/C#]


e|---0-------0-------0-------0---------|
B|-----1-------3-------3-------2-------|
G|-------2-------0-------2-------2-----|
D|---------3-------0-------0-----------|
A|---------------------------------4---|
E|-------------------------------------|

Now we’re trapped, we’re dark clouds [A/C#]people

[A/C#]


e|---0--------0-------0---------|
B|-----1--------3-------2-------|
G|-------2--------2-------2-----|
D|---------3--------0-----------|
A|--------------------------4---|
E|------------------------------|

We are helpless —– to re[A/C#]sist


e|---0--------0-------0---------|
B|---1--------3-------0---------|
G|---0--------2-------1---------|
D|---2--------0-------2---------|
A|---3----------------2---------|
E|--------------------0---------|

In your darkest hour

(Part 2)



But it was just a lie, just a lie, just a lie, just a lie
Even at this angle
And so we crumble
Still turning heads, you know where it’s at, this dread still covers us
You gotta be kidding me
The grass grows over me
Your face in the glass, in the glass, it was just a laugh, just a laugh
It’s whatever you say it is
Split infinite

(Part 3)

[A/C#]


e|---0-------0-------0-------0---------|
B|-----2-------1-------3-------2-------|
G|-------2-------2-------2-------2-----|
D|---------2-------3-------0-----------|
A|---------------------------------4---|
E|-------------------------------------|

And in your life —– there comes a [A/C#]darkness

[A/C#]


e|---0-------0-------0-------0---------|
B|-----1-------3-------3-------2-------|
G|-------2-------0-------2-------2-----|
D|---------3-------0-------0-----------|
A|---------------------------------4---|
E|-------------------------------------|

This spacecraft, blocking out the [A/C#]sky

[A/C#]


e|---0--------0-------0---------|
B|-----1--------3-------2-------|
G|-------2--------2-------2-----|
D|---------3--------0-----------|
A|--------------------------4---|
E|------------------------------|

And there’s nowhere —– to [A/C#]hide

[A/C#]


e|---0-------0-------0-------0---------|
B|-----1-------3-------3-------2-------|
G|-------2-------0-------2-------2-----|
D|---------3-------0-------0-----------|
A|---------------------------------4---|
E|-------------------------------------|

You run to look back, and you cover your [A/C#]ears

[A/C#]


e|---0--------0-------0---------|
B|-----1--------3-------2-------|
G|-------2--------2-------2-----|
D|---------3--------0-----------|
A|--------------------------4---|
E|------------------------------|

But it’s the loudest sound —– you’ve ever [A/C#]heard


e|---0--------0-------0---------|
B|---1--------3-------0---------|
G|---0--------2-------1---------|
D|---2--------0-------2---------|
A|---3----------------2---------|
E|--------------------0---------|

In your darkest hour

(Outro)





To play the most songs, including Decks Dark by Radiohead by ukulele, the most important basic ukulele chords to learn are C chord, D chord, G chord, and Em chord.
These set you up to play a a lot of songs, and each of them is easy to master.

Leave a Reply

Your email address will not be published.