Deep Inside by Incubus Ukulele Chords

Posted on

If you are searching for Deep Inside ukulele chords, you’ve visit to the best place.
You can play versatile instrument Deep Inside using ukulele or guitar.
This song by Incubus can also be played by that instruments.
=

Deep Inside chords has rhythm and included in S.C.I.E.N.C.E. (1997) album.
You can also find other musical style, including jazz ukulele chords, country music ukulele chords, pop ukulele chords, world music ukulele chords, and rock ukulele chords here.

Deep Inside by Incubus Ukulele Chords


gr8 song from s.c.i.e.n.c.e (sounds more like one from fungus amongus)
c-clean,d-distorted
Intro:
c


E|-----------19------------------------------------|
B|--9----------------10-10--10-10-10-10-10-10------|
G|--7-----------16---9---9---9--9--9--9--9--9------|
D|-------------------10-10--10-10-10-10-10-10------|
A|-------------------------------------------------|
E|-------------------------------------------------|

c


E|--x-x-7------------------x-x-7-------------------|
B|--x-x-7------------------x-x-7-------------------|
G|--x-x-7----9-7--7h-9-7---x-x-7-----7-------------|
D|---------------------------------9---9-7---------|
A|-------------------------------------------------|
E|-------------------------------------------------|

c


E|--x-x-7------------------x-x-7----x-10-x-10-10-10---|
B|--x-x-7------------------x-x-7----x-9--x--9--9--9---|
G|--x-x-7----9-7--7h-9-7---x-x-7----x-10-x-10-10-10---|
D|----------------------------------------------------|
A|----------------------------------------------------|
E|----------------------------------------------------|

c


E|--x-x-7------------------------------------|
B|--x-x-7------------------------------------|
G|--x-x-7----9-7--7h-9-7---9--7--------------|
D|-------------------------------9--7-9------|
A|-------------------------------------------|
E|-------------------------------------------|

Verse:

c


E|--------------------------------------x-16-16--16-16-16-16--|
B|--------------------------------------x-15-15--15-15-15-15--|
G|--7------------7-----------7----------x-16-16--16-16-16-16--|
D|----9-9-9-9-9----9-9-9-9-9---9-9-9-9------------------------|
A|------------------------------------------------------------|
E|------------------------------------------------------------|

Chorus:


E|----------------------------------------|
B|----------------------------------------|
G|--x-x-x-x--9----6-----------------------|
D|--x-x-x-x--9----6----7----8-8-8-8-------|
A|--x-x-x-x--7----4----7----8-8-8-8-------|
E|---------------------5----6-6-6-6-------|

Pre-Verse:
c


E|--x-x-7------------------x-x-7-------------------|
B|--x-x-7------------------x-x-7-------------------|
G|--x-x-7----9-7--7h-9-7---x-x-7-----7-------------|
D|---------------------------------9---9-7---------|
A|-------------------------------------------------|
E|-------------------------------------------------|

Guitar Solo # 1:


E|-------------------------------------------------|
B|-------------------------------------------------|
G|--6--6h-7-6--6h-7-6--6h-7----6--7--9--7--6-------|
D|---------------------------7---------------------|
A|-------------------------------------------------|
E|-------------------------------------------------|


E|-------------5-5-5--------------3-3-3-------------7-8-9-10--11-|
B|--------------------------------------------7-8-9--------------|
G|-----6-7--7-------------4-5--5---------7-8-9-------------------|
D|--9------------------7-----------------------------------------|
A|---------------------------------------------------------------|
E|---------------------------------------------------------------|

d |let ring~~~~


E|--12----------12------12--12-------12--13--15--17--20----|
B|-----------------10----------10--------------------------|
G|--------------------9-----------9------------------------|
D|---------------------------------------------------------|
A|---------------------------------------------------------|
E|---------------------------------------------------------|


E|--------------------------------------------------------------|
B|---15-14-14-14-14---14--------------15-14-14-14-14---14-------|
G|-----------------------14-14-14-14----------------------14-14-|
D|--------------------------------------------------------------|
A|--------------------------------------------------------------|
E|--------------------------------------------------------------|

Pre-Chorus:


E|------------------------------------|
B|------------------------------------|
G|--------------8---------------8-----|
D|--6-6-6-6-6---8---6-6-6-6-6---8-----|
A|--6-6-6-6-6---6---6-6-6-6-6---6-----|
E|--4-4-4-4-4-------4-4-4-4-4---------|

Chorus:


E|----------------------------------------|
B|----------------------------------------|
G|--x-x-x-x--9----6-----------------------|
D|--x-x-x-x--9----6----7----8-8-8-8-------|
A|--x-x-x-x--7----4----7----8-8-8-8-------|
E|---------------------5----6-6-6-6-------|

Guitar Solo # 2:


E|--------------------------------------------------------|
B|--------------------------------------------------------|
G|--11---11-9--7---7h-9p-7----------7---7h-9--11-9-7-9----|
D|---------------9---------9-7h-9-9---9-------------------|
A|--------------------------------------------------------|
E|--------------------------------------------------------|

Guitar Solo # 2:


E|--10p-9-9-------9-10-10p-9-9-------9-10--12-9h-10p-9--12-12-12-|
B|----------8---8--------------8---8-----------------------------|
G|------------7------------------7-------------------------------|
D|---------------------------------------------------------------|
A|---------------------------------------------------------------|
E|---------------------------------------------------------------|

d |let ring~~~~~~~


E|--12p-10-10-10-10--10--14p-12-12-10-12p-10-10-10-10-----------|
B|--------------------------------------------------------------|
G|--------------------------------------------------------------|
D|--------------------------------------------------------------|
A|--------------------------------------------------------------|
E|--------------------------------------------------------------|

enjoy incubus!!!!!!!

To play the most songs, including Deep Inside by Incubus by ukulele, the most important basic ukulele chords to learn are C chord, D chord, G chord, and Em chord.
These set you up to play a ton of songs, and each of them is easy to master.

Leave a Reply

Your email address will not be published.