Delirium by Andreas Bourani Ukulele Chords

Posted on

If you are searching for Delirium ukulele chords, you already come to the best site.
You can play versatile instrument Delirium using ukulele or guitar.
This song by Andreas Bourani can also be played by that instruments.
=

Delirium chords has rhythm and included in Hey (2014) album.
You can also find other musical style, including jazz ukulele chords, country music ukulele chords, pop ukulele chords, world music ukulele chords, and rock ukulele chords here.

Delirium by Andreas Bourani Ukulele Chords



e|--------------------------|
B|---1---------1--------1---|
G|-----0-----0--------0-----| x3
D|-------0h2-----2h3--------|
A|-3------------------------|
E|--------------------------|
e|----------------------3---|
B|---1---------1------------|
G|-----0-----0--------0-----|
D|-------0h2-----2h3--------|
A|-3------------------------|
E|--------------------------|

[VERSE 1]


e|--------------------------|
B|---1---------1--------1---|
G|-----0-----0--------0-----|
D|-------0h2-----2h3--------|
A|-3------------------------|
E|--------------------------|

Du bist ein Rausch auf dunnem Eis,


e|--------------------------|
B|---1---------1--------1---|
G|-----0-----0--------0-----|
D|-------0h2-----2h3--------|
A|-3------------------------|
E|--------------------------|

Gefahrlich schon und leicht,


e|--------------------------|
B|---1---------1--------1---|
G|-----0-----0--------0-----|
D|-------0h2-----2h3--------|
A|-3------------------------|
E|--------------------------|

Eine Droge die Gluck verheist,


e|--------------------------|
B|---1---------1--------1---|
G|-----0-----0--------0-----|
D|-------0h2-----2h3--------|
A|-3------------------------|
E|--------------------------|

surreal und unerreicht

[INSTRUMENTAL 1]


e|--------------------------|
B|---1---------1--------1---|
G|-----0-----0--------0-----|
D|-------0h2-----2h3--------|
A|-3------------------------|
E|--------------------------|
e|----------------------3---|
B|---1---------1------------|
G|-----0-----0--------0-----|
D|-------0h2-----2h3--------|
A|-3------------------------|
E|--------------------------|

[VERSE 2]


e|--------------------------|
B|---1---------1--------1---|
G|-----0-----0--------0-----|
D|-------0h2-----2h3--------|
A|-3------------------------|
E|--------------------------|

Du bist eine Euphorie,


e|--------------------------|
B|---1---------1--------1---|
G|-----0-----0--------0-----|
D|-------0h2-----2h3--------|
A|-3------------------------|
E|--------------------------|

Die man durchlebt doch bleibt sie nie,


e|--------------------------|
B|---1---------1--------1---|
G|-----0-----0--------0-----|
D|-------0h2-----2h3--------|
A|-3------------------------|
E|--------------------------|

Sie vergeht nach kurzer Zeit,


e|--------------------------|
B|---1---------1--------1---|
G|-----0-----0--------0-----|
D|-------0h2-----2h3--------|
A|-3------------------------|
E|--------------------------|

Nur mein Wunsch nach mehr verweilt.

[INSTRUMENTAL 2]


e|--------------------------|
B|---1---------1--------1---|
G|-----0-----0--------0-----| x2
D|-------0h2-----2h3--------|
A|-3------------------------|
E|--------------------------|

Es ist nicht leicht dir zu begegnen,
Ich kann nichts dagegen tun,
Ich schaff es nicht dich aufzugeben,
Dabei tust du mir nicht gut,
Ich hor dich in allen Liedern,
Und kann nichts dagegen tun.
Du bist mein Delirium.


e|--------------------------|----------------------3---|
B|---1---------1--------1---|---1---------1------------|
G|-----0-----0--------0-----|-----0-----0--------0-----|
D|-------0h2-----2h3--------|-------0h2-----2h3--------|
A|-3------------------------|-3------------------------|
E|--------------------------|--------------------------|

[VERSE 3]


e|--------------------------|
B|---1---------1--------1---|
G|-----0-----0--------0-----|
D|-------0h2-----2h3--------|
A|-3------------------------|
E|--------------------------|

Du bist ein einziger Exzess,


e|--------------------------|
B|---1---------1--------1---|
G|-----0-----0--------0-----|
D|-------0h2-----2h3--------|
A|-3------------------------|
E|--------------------------|

In dem man sich vergisst,


e|--------------------------|
B|---1---------1--------1---|
G|-----0-----0--------0-----|
D|-------0h2-----2h3--------|
A|-3------------------------|
E|--------------------------|

Von dem man auch nicht lasst,


e|--------3----------------------|
B|------------------------1------|
G|------2---2-----------2---2----|
D|----2-------2-------3-------3--|
A|-0---------------3-------------|
E|-------------------------------|

Wenn man sich daran verbrennt,

[INSTRUMENTAL 3]


e|--------------------------|
B|---1---------1--------1---|
G|-----0-----0--------0-----| x2
D|-------0h2-----2h3--------|
A|-3------------------------|
E|--------------------------|

[VERSE 4]


e|--------------------------|
B|---1---------1--------1---|
G|-----0-----0--------0-----|
D|-------0h2-----2h3--------|
A|-3------------------------|
E|--------------------------|

Hab nichts gesucht und nichts vermisst,


e|----------------------3---|
B|---1---------1------------|
G|-----0-----0--------0-----|
D|-------0h2-----2h3--------|
A|-3------------------------|
E|--------------------------|

Du kamst wie Fieber uber mich,


e|--------------------------|
B|---1---------1--------1---|
G|-----0-----0--------0-----|
D|-------0h2-----2h3--------|
A|-3------------------------|
E|--------------------------|

Bist ein Gefuhl das mich zerfrisst,


e|--------3----------------------|
B|------------------------1------|
G|------2---2-----------2---2----|
D|----2-------2-------3-------3--|
A|-0---------------3-------------|
E|-------------------------------|

Kann nicht mit dir, nicht ohne dich.

[INSTRUMENTAL 4]


e|--------------------------|
B|---1---------1--------1---|
G|-----0-----0--------0-----| x2
D|-------0h2-----2h3--------|
A|-3------------------------|
E|--------------------------|

Es ist nicht leicht dir zu begegnen,
Ich kann nichts dagegen tun,
Ich schaff es nicht dich aufzugeben,
Dabei tust du mir nicht gut,
Ich hor dich in allen Liedern,
Und kann nichts dagegen tun.
Du bist mein Delirium.

Ich will mehr, mehr
Ich hab noch nicht genug von dir,
Gib mir mehr, mehr
Ich hab noch nicht genug von dir,
Mehr, mehr
Ich hab noch nicht genug von dir,
Mehr, mehr, gib mir mehr.


e|--------------------------|
B|---1---------1--------1---|
G|-----0-----0--------0-----|
D|-------0h2-----2h3--------|
A|-3------------------------|
E|--------------------------|

Es ist nicht leicht dir zu begegnen,


e|--------------------------|
B|---1---------1--------1---|
G|-----0-----0--------0-----|
D|-------0h2-----2h3--------|
A|-3------------------------|
E|--------------------------|

Ich kann nichts dagegen tun.


e|--------------------------|
B|---1---------1--------1---|
G|-----0-----0--------0-----|
D|-------0h2-----2h3--------|
A|-3------------------------|
E|--------------------------|

Du bist mein Delirium.

Es ist nicht leicht dir zu begegnen,
Ich kann nichts dagegen tun,
Ich schaff es nicht dich aufzugeben,
Dabei tust du mir nicht gut,
Ich hor dich in allen Liedern,
Und kann nichts dagegen tun.
Du bist mein Delirium.

Es ist nicht leicht dir zu begegnen,
Ich kann nichts dagegen tun,
Ich schaff es nicht dich aufzugeben,
Dabei tust du mir nicht gut,
Ich hor dich in allen Liedern,
Und kann nichts dagegen tun.
Du bist mein Delirium.
Du bist mein Delirium.

To play the this songs, including Delirium by Andreas Bourani by ukulele, the most important basic ukulele chords to learn are C chord, D chord, G chord, and Em chord.
These set you up to play a many of songs, and each of them is easy to master.

Leave a Reply

Your email address will not be published.