Disdain by Knuckle Puck Ukulele Chords

Posted on

If you are searching for Disdain ukulele chords, you already come to the best place.
You can play versatile instrument Disdain using ukulele or guitar.
This song by Knuckle Puck can also be played by that instruments.
=

Disdain chords has rhythm and included in Copacetic (2015) album.
You can also get another musical genres, including jazz ukulele chords, country music ukulele chords, pop ukulele chords, world music ukulele chords, and rock ukulele chords here.

Disdain by Knuckle Puck Ukulele Chords

– Verse:


eb|-------------|
Bb|-10---x-12---|
Gb|--0---x--0---|
Db|--x---x--x---|
Ab|-10---x-10---| 8x
Eb|-------------|

I’ve got a lot to talk about.
My disdain for the Pacific threw my name into distant mouths.
The heart is heavy when the words are weighing you down.
I’m so fking far down.

– Chorus:

Crosscheck.
Let the turbines shake the overheads.
It took fifteen hours and a missed connection.
Overwhelmed and I’m overstepping bounds.


eb|-------------|
Bb|-10---x-12---|
Gb|--0---x--0---|
Db|--x---x--x---|
Ab|-10---x-10---| 8x
Eb|-------------|

– Verse 2:

I’ve had a lot to think about.
The questions linger but I’m too scared to speak out.
Like what could you possibly see in a failure like me?

– Pre Chorus: (I decided to put a tab for this part because it’s easier to read instead of the chords)


eb|------------------------------------------------------------------------------|
Bb|------------------------------------------------------------------------------|
Gb|------------------------------------------------------------------------------|
Db|-5-5-5-5--5-5-5-5----5-5-4-4--5-5-4-4----5-5-5-5--5-5-5-5---5-5-4-4--5-5-4-4--|
Ab|-2-2-3-3--2-2-3-3----7-7-5-5--7-7-5-5----2-2-3-3--2-2-3-3---7-7-5-5--7-7-5-5--|
Eb|------------------------------------------------------------------------------|
eb|----------------------------------------------|
Bb|----------------------------------------------|
Gb|----------------------------------------------|
Db|-5-5-5-5--5-5-5-5--xxx-5-55-5-5--4-44-xxx-5~--|
Ab|-2-2-3-3--2-2-3-3--xxx-5-55-5-5--5-55-xxx-3~--|
Eb|-------------------xxx-3-33-3-3--2-22-xxx-----|

[B/G] [B/G] Make no mistake
[G/E] [G/E] The winds have changed
[B/G] An[B/G]d I’ll be catching the resulting tidal w[G/E]aves
[G/E]on an empty slate [B/G] [B/G] To the landlocked states.[G/F#]

– Chorus:

Crosscheck.
Let the turbines shake the overheads.
It took fifteen hours and a missed connection.
Overwhelmed and I’m overstepping bounds.
And if you’re picking up on the misdirection,
keep the status quo with an ear against the ground.

– Outro:


eb|------------------------------3~---|
Bb|------------------------------3~---|
Gb|------------------------------0~---|
Db|-5-5-5-4-0-2~----5-5-5-4-0-2--2~---|
Ab|-7-7-7-5-2-3~----7-7-7-5-2-3--3~---| 2x
Eb|-----------------------------------|

And if you let me stay I’ll keep out of your way.
I’ll be the empty canvas if you be the paint.
And if you let me stay I’ll keep out of your way.
My space is yours to occupate.

To play the this songs, including Disdain by Knuckle Puck by ukulele, the most crucial basic ukulele chords to learn are C chord, D chord, G chord, and Em chord.
These set you up to play a many of songs, and each of them is easy to learn.

Gravatar Image
Like to play Ukulele and Sudoku Game

Leave a Reply

Your email address will not be published. Required fields are marked *