Down Down Down by Charlie Simpson Ukulele Chords

Posted on

If you are looking for Down Down Down ukulele chords, you’ve come to the right site.
You can play versatile instrument Down Down Down using ukulele or guitar.
This song by Charlie Simpson can also be played by that instruments.
=

Down Down Down chords has rhythm and included in Young Pilgrim (2011) album.
You can also get another musical genres, including jazz ukulele chords, country music ukulele chords, pop ukulele chords, world music ukulele chords, and rock ukulele chords here.

Down Down Down by Charlie Simpson Ukulele Chords

||||
|| Down Down Down – Charlie Simspon ||
||||

I saw that there was only the chords on here so I thought I’d tab out more
of the intricate stuff and the main riff.
I’m not convinced its all 100% to the record but its pretty close and the
fingerpicking parts can be played any way really I just find this way sounds good.
Hope it helps, any queries ask me at tomfin@hotmail.co.uk

Intro/Verse/Break/Outro Chords
Em: 022000
A5/E: x77xxx
G5/D: x55xxx
D: xx0232
Dadd11: x5403x
C: x32010
G: 320003

Chorus Chords
Em(1): 022000
Em(2): x79987
C(1): x32010
C(2): x35553 or 8 10 10 9 8 8
G(1): 320003
G(2): 355433
Eb(no5): x6580x
Dsus2: x579xx
Gmaj9: 10 9 0 0 10 10
Cadd9: x32033

Intro:

[A5/E] [G5/D]


e|----------------------------|----------------------------|
B|----------------------------|--------3-----------1-------|
G|--------0--------0----------|-----------0-----------0----|
D|-----------2s-9-----7--5----|--4-----------2-------------| (x2)
A|--------------------7--5----|--5-----------3-------------|
E|--0-------------------------|----------------------------|

Verse 1 (same as intro):

There are too many people[A5/E] in t[G5/D]his world
Trying to shout their names[A5/E][G5/D]
How am I supposed to know [A5/E]where [G5/D]to run?
But I don’t know who’s to blame[A5/E][G5/D]
And I give people [A5/E]somet[G5/D]hing along the way[A5/E][G5/D]
Is it OK to be afra[A5/E]id of[G5/D] love if you don’t understand it[A5/E]?[G5/D]

Chorus:

And the n[Em(1)]ights are so l[C(1)]ong withou[G(1)]t you
And the days speed up,
My [Em(2)]god I’ll [C(2)]never let [G(2)]go of you now
Cause some things are not worth changing
My [Em(1)]heart swells to the [C(1)]size of an [G(1)]orchid
It takes the rest of my [Em(2)]heart with [C(2)]it
Going d[G(2)]own down down…
But I’m never going back home

Post-Chorus:

[A5/E] [G5/D]


e|----------------------------|----------------------------|
B|----------------------------|--------3-----------1-------|
G|--------0--------0----------|-----------0-----------0----|
D|-----------2s-9-----7--5----|--4-----------2-------------| (x4)
A|--------------------7--5----|--5-----------3-------------|
E|--0-------------------------|----------------------------|

Add Strumming after the second time


e|----------------------------------------------------|
B|--0-----0-----0--0--0--0--0-----0-----0--0--0--0----|
G|--0-----0-----0--0--0--0--0-----0-----0--0--0--0----|
D|--2-----2-----2--2--2--2--2-----2-----2--2--2--2----|
A|--2-----2-----2--2--2--2--2-----2-----2--2--2--2----|
E|--0-----0-----0--0--0--0--0-----0-----0--0--0--0----|


e|----------------------------------------------------|
B|--3-----3-----3--3--3--3--1-----1-----1--1--1--1----|
G|--0-----0-----0--0--0--0--0-----0-----0--0--0--0----|
D|--4-----4-----4--4--4--4--2-----2-----2--2--2--2----|
A|--5-----5-----5--5--5--5--3-----3-----3--3--3--3----|
E|----------------------------------------------------|

Verse 2:

We’ve sent people into space without even really knowing
If there ever gonna come back down
And there are people asking
Just where I am,
Is it ok to be afraid of hope if you don’t know how to keep it?

Chorus:

And the n[Em(1)]ights are so l[C(1)]ong withou[G(1)]t you
And the days speed up,
My [Em(2)]god I just[C(2)] can’t [G(2)]lose you now
But things are about to change
Em(1)(STOP) G(1)
My heart swells to the size of an orchid
It takes the rest of my [Em(2)]heart with [C(2)]it
Going d[G(2)]own down down…
But I’m neverrrrrrr going back home

Break (same rythm as verse above):

| G | Dadd11 | C | (x4)
oooohs

Outro:


e|----------------------------|--------------2-------------|
B|--------------0-------------|--------3--------3-----3----|
G|--------0--------0-----0----|-----2-----2--------2-------|
D|-----0-----0--------0-------|--0-------------------------|
A|----------------------------|----------------------------|
E|--3-------------------------|----------------------------|


e|--------------0-------------|--------------0-------------|
B|--------0--------0-----0----|-----------------1----------|
G|-----0-----0--------0-------|--------0-----------0-------|
D|----------------------------|-----2-----2-----------2----|
A|----------------------------|--3-------------------------|
E|--0-------------------------|----------------------------|

If people on Earth could just get together
Then maybe we could find a place for each other
If people on Earth could just stand together
Then maybe we could find a place for each other
If people on Earth could just get together again
Maybe we could find a place for each other
If people on Earth could just get together again
Maybe we could find a place for each other now…

End on G

To play the this songs, including Down Down Down by Charlie Simpson by ukulele, the most important basic ukulele chords to learn are C chord, D chord, G chord, and Em chord.
These set you up to play a a lot of songs, and each of them is easy to learn.

Leave a Reply

Your email address will not be published.