Drifting by Andy McKee Ukulele Chords

Posted on

If you are looking for Drifting ukulele chords, you already visit to the right place.
You can play versatile instrument Drifting using ukulele or guitar.
This song by Andy McKee can also be played by that instruments.
=

Drifting chords has rhythm and included in Art of Motion (2006) album.
You can also get another musical style, including jazz ukulele chords, country music ukulele chords, pop ukulele chords, world music ukulele chords, and rock ukulele chords here.

Drifting by Andy McKee Ukulele Chords


check out Andy Mckee, along with the other guitarists

Both E’s and the B are dropped 1 tone down.

i decided to add another thing, to tell you when to slap the guitar with
your left hand between bass notes. it will be represented by this “+”

(note: notes inside “[]” these are slap harmonics done with right hand)


||--------------|------------|-------------|---------------||
||o-------------|------------|-------------|------------o--||
||--------------|------------|-------------|---------------||
||--------------|------------|-------------|---------------||
||o-2----2------|-2----------|-2----2------|-2----------o--||
||--2----2------|-2----------|-2----2------|-2-------------||

[+] [+] [+] [+] [+] [+] [+] [+]


|------0-----------|-----0------0----|-----0------------|----------0-----|
|--------0---------|---0-----------0-|-------0----------|---0----------0-|
|---11-----0-(0)-6-|------6-(6)------|---6-----0-(0)--4-|-----7s9-----6--|
|------------------|-----------------|------------------|----------------|
|-2--------2-------|-5-------7-------|-2-------2--------|-5------7-------|
|-2--------2-------|-5-------7-------|-2-------2--------|-5------7-------|

[+] [+] [+] [+]


|------------0------------|-----0-------0-----|
|--------------0----------|---0------------0--|
|---11h12p11-----0-(0)--6-|------6-(6)--------|
|-------------------------|-------------------|
|-2--------------2--------|-5-------7---------|
|-2--------------2--------|-5-------7---------|

[+] [+] [+] [+]


|-----0------------|----------0-----|
|-------0----------|---0------------|
|---6-----0-(0)--4-|----7s9-----11s7|
|------------------|----------------|
|-2-------2--------|-5------7-------|
|-2-------2--------|-5------7-------|
|--------0-----------0-0-(0)-|-(0)-0----0--0-(0)-|
|----------------------0-(0)-|-(0)-0----0--0-(0)-|
|----------11-(11)S9---0h9--|-(9)-9----9--9h11--|
|---9-11---------------0-(0)-|-(0)-0----0--0-(0)-|
|----------------------9-(9)-|-(9)-9----9--9-(9)-|
|-9--------------------0-(0)-|-(0)-0----0--0-(0)-|
|--------0-----------0-0-(0)-|-(0)-0----0-(0)-----|
|----------------------0-(0)-|-(0)-0----0-(0)---0-|
|----------11-(11)S9---0h9--|-(9)-9----9h11------|
|---9-11---------------0-(0)-|-(0)-0----0-(0)-9---|
|----------------------9-(9)-|-(9)-9----9-(9)-----|
|-9--------------------0-(0)-|-(0)-0----0-(0)-----|

[3/4]


|--------0---------0-0-(0)-|-(0)-0--0---0------||
|--------------------0-(0)-|-(0)-0--0---0------||
|----------9-(9)S7---0h6---|-(6)-6--6---6------||
|-5-7-/9-------------7-(7)-|-(7)-7--7---7------||
|-5------------------7-(7)-|-(7)-7--7---7------||
|-5------------------7-(7)-|-(7)-7--7---7------||

[4/4]


|-(0)--------0---------0-0--|-(0)---------------|
|-(0)--------------------0--|-(0)-----------0---|
|-(0)----------9-(9)S7---2--|-(2)--2-(2)-2----0-|
|--7--(7)-h9-------------0--|-(0)--0-(0)-0------|
|--5---------------------0--|-(0)--0h2--0------|
|--5---------------------0--|-(0)--0-(0)-0------|
|-----0--------0--|-----0-------0--|-----0--------0--|-----0-------0--|
|-------0------0--|-----0-------0--|-------0------0--|-----0-------0--|
|---0----------0--|-----0-------0--|---0----------0--|-----0-------0--|
|-4-------p0h2-0h4|--p0------------|-4-------p0h2-0h7|---5------------|
|-2---------------|-5-----9--p7----|-2---------------|-5-----9--h7----|
|-2---------------|-5-------7------|-2---------------|-5-------7------|

|-----0--------0--|-----0-------0--|----0-----0--0--|-------0---------|
|-------0------0--|-----0-------0--|------0---0--0--|-------0---------|
|---0----------0--|-----0-------0--|-11-----0-0--0--|-------0---------|
|-4-------p0h2-0h7|---5---9---7----|----------0--0--|-------0---------|
|-2---------------|-5-------7------|--2----------0--|-2-0-2------2-0--|
|-2---------------|-5-------7------|--2-------------|-2-0-2------2-0--|

(strumming is easy to figure out)


|--------0------0-|-0--0--0-----------|----0---0---0------|
|-----------------|-0--0--0-----------|----0---0---0------|
|-----------------|-9--9--9-----------|----0---4---6------|
|--9s-11--11s-9---|-10-10-10----------|----4---5---7----------|
|-----------------|-10-10-10----------|-0h-2---5---7-7p0------|
|-9---------------|-10-10-10----------|-0h-2---5---7-7p0------|

I got really lazy at the end…

Official record label site.

To play the most songs, including Drifting by Andy McKee by ukulele, the most important basic ukulele chords to learn are C chord, D chord, G chord, and Em chord.
These set you up to play a a lot of songs, and each of them is easy to master.

Leave a Reply

Your email address will not be published.