Drive By by Glen Phillips Ukulele Chords

Posted on

If you are looking for Drive By ukulele chords, you have visit to the best site.
You can play versatile instrument Drive By using ukulele or guitar.
This song by Glen Phillips can also be played by that instruments.
=

Drive By chords has rhythm and included in Abulum (2001) album.
You can also get another musical genres, including jazz ukulele chords, country music ukulele chords, pop ukulele chords, world music ukulele chords, and rock ukulele chords here.

Drive By by Glen Phillips Ukulele Chords


Tab: “Driveby” by Glen Phillips
Transcribed by michael a. mazur

Capo IV

Intro:


|-----------------------------|
|-----------------------------|
|--0----0--0-------0--0----0--|
|--0h2--2--2p0-----0--0h2--0--|
|--3----3--3----3-------------|
|------------------3----------|

Verse:


||------------------------------------------|
||------------1--------1-----------------1--|
||--------0--------0-----------0-----0-----|
||-----2--------2-----------2--------------|
||---3--------------------3--------2--------|
||------------------------------------------|

[D/F#]


|----------------------|----------------|--------1-----0--------|
|-----1-----0h1--------|----------3-----|-----------3-----3-----|
|--------2-------2-----|-------2-----2--|-----2--------------2--|
|-------------------2--|----0-----------|--0--------------------|
|--0-------------------|----------------|-----------------------|
|----------------------|/2--------------|-----------------------|

G 1. Cadd9 G


|----------------||-----------------------------------||
|-----0--1--3/5--||-----------3-----------------------||
|-----0--0--2/4--||--------0-----0-----0-----0-------||
|-----0--0--3/5--||-----2-----------2--0--0--0h2--0--||
|----------------||--3--------------------------------||
|--3-------------||--------------------3--------------||

2. C C7


||--------------------------------||
||-----------1--------1-----------||
||--------0-----0--------0-----3--||
||-----2-----------2--------2-----||
||--3-----------------------------||
||--------------------------------||

i was the driver for the driveby

of the neighbor’s dog

dad had always hated it

[D/F#]and he said “come on son,

get into the vega now,

and i’ll go get my shotgun.”
it was a military holiday
and kids were everywhere
i hid behind the steering wheel
and tried to disappear
tried to speak but couldn’t

dad was whistling and drinking beer

Chorus:

and i prayed “dear god,

if you save this dog[G/B]

i will never get high

i will never jack off

[Am/G]i will do all the things that i should but have not[G/B]

i’ll be a good boy from now on”

Verse: in this verse (and the last as well), the first repeat of the
chord progression is omitted, and it ends on the C7 leading
into the chorus as before.

we turned around the corner soon
and saw the neighbor’s yard
did lit up a cigarette
and rolled his window down
and grinning like an idiot
he stuck his head and body out

Chorus:

and i prayed “dear god,
if you save this dog
i will never get high
i will never jack off
i will be all the things that i should but have not

i’ll be a good boy from now on[Am/G]

i’ll be a good boy from now on”

Bridge:

well he popped in a shell

took aim with the gun

then a flash and a bang

and the [E/G#]dog, it was gone…

jumped up and it ran away

dad had shot right through his chain

Verse:

well dad said “take me to the dairy freeze
i want to have a shake”
we sipped them on the benches there
and stared out on the lake
and dad has never said another word about that day

Chorus:

and i hope you’re not disappointed in me
’cause i still get high
and i still jack off
and you knew i was lying but you still saved that dog

you’re such a good god[Am/G]

you’re such a good good god

you’re such a good goddamn backwards dog[Am/G]

and i’ll be a good boy from now on

To play the most songs, including Drive By by Glen Phillips by ukulele, the most important basic ukulele chords to learn are C chord, D chord, G chord, and Em chord.
These set you up to play a ton of songs, and each of them is easy to learn.

Leave a Reply

Your email address will not be published.