Emily by Brian Melo Ukulele Chords

Posted on

If you are searching for Emily ukulele chords, you already come to the right place.
You can play versatile instrument Emily using ukulele or guitar.
This song by Brian Melo can also be played by that instruments.
=

Emily chords has rhythm and included in album.
You can also find another musical style, including jazz ukulele chords, country music ukulele chords, pop ukulele chords, world music ukulele chords, and rock ukulele chords here.

Emily by Brian Melo Ukulele Chords


-------------------------------------------------------------------------------

SONG NAME – Band Name


-------------------------------------------------------------------------------

Tabbed by: Kendel (Myzter Kay)
Email: angelwithhumanwings@gmail.com

Tuning: Standard

Hi everyone! This is my first tab so… I hope it works. The rhythm is a bit tricky, so
to the song to catch it. Good luck, and cheers!

Chords:


e|----0----0------0----0---(1)---3---|
B|----1----0------3----1----1----3---|
G|----2----2------2----0----2----0---|
D|----2----2------2----2----3----0---|
A|----0----0------0----3----3----2---|
E|----0----0------0----x----1----3---|

Intro/Verse:


e|----------------------x------| e|--3--|
B|-1---111-0-h-1-3--1---1------| B|--3--|
G|-2---222-2---2-2--2---2------| G|--0--|
D|-2---222-2---2-2--2---3------| x3 D|--0--|
A|-0---000-0---0-0--0---3------| A|--2--|
E|----------------------1------| E|--3--|

(I look in my eyes…) (…trying to see)

I look in my eyes
Searching for signs of life
Digging through the darkness trying to see
Pity the sight
Try to wipe out last night
That’s not the kind of guy I want to be

( Tab from: http://www.guitartabs.cc/tabs/b/brian_melo/emily_tab.html )
Chorus
Sweeping these city streets
Oh picking up the pieces
Torn and scattered at my feet
I’m down here on my knees asking for forgiveness
Hoping hard and begging please… Emily

(play intro/verse)
It’s not that I lied
Oh no, when I stopped trying
Was so sure you were mine
Turned my back to you
Cause, I never believed you could just up and leave me
Don’t know what I should do
I’m not losing you again

Chorus
Sweeping these city streets
Oh picking up the pieces
Torn and scattered at my feet
I’m down here on my knees asking for forgiveness
Hoping hard and begging please…

…you’re the one (x4)

Chorus
Sweeping these city streets
Oh picking up the pieces
Torn and scattered at my feet
I’m down here on my knees asking for forgiveness
Hoping hard and begging please…

…Emily (x4)

End on F

| / slide up
| slide down
| h hammer-on
| p pull-off
| ~ vibrato
| + harmonic
| x Mute note

To play the this songs, including Emily by Brian Melo by ukulele, the most important basic ukulele chords to learn are C chord, D chord, G chord, and Em chord.
These set you up to play a many of songs, and each of them is easy to learn.

Leave a Reply

Your email address will not be published.