Employer’s Market by Home Grown Ukulele Chords

Posted on

If you are searching for Employer’s Market ukulele chords, you already come to the right site.
You can play versatile instrument Employer’s Market using ukulele or guitar.
This song by Home Grown can also be played by that instruments.
=

Employer’s Market chords has rhythm and included in That’s Business (1995) album.
You can also find other musical genres, including jazz ukulele chords, country music ukulele chords, pop ukulele chords, world music ukulele chords, and rock ukulele chords here.

Employer’s Market by Home Grown Ukulele Chords


-------------------------------------------------------------------------------

EMPLOYERS MARKET – Homegrown


-------------------------------------------------------------------------------

By: Shaun/Waterpolo1_@yahoo.com

Intro 3x 1x


e|-------]-----------------------]-----------------------|
B|-------]-----------------------]-----------------------|
G|---4---]-----------------------]-----------------------|
D|-2-4-4-]--------0--------------]----------0------------|
A|-2-2-4-]-----2-4--------4-2-0--]------2-4--------------|
E|-0---2-]-0000------2222-------2]-0000-------2----------|

Riff A/ Verse 3x 1x then riff a 3x


e|------------------------]------------------------------|
B|------------------------]-----------------4-4----------|
G|------------------------]-----------------4-4----------|
D|----------0-------------]----------0-------------------|
A|----- 2-4--------4-2-0--]------2-4---------------------|
E|-0000-------2222-------2]-0000-------2222--------------|

3x 1x


e|------------------]-------------------]---------------------|
B|------------------]-------------------]---------------------|
G|------------------]------4444---------]---444---------------|
D|----------0-444444]-2222-4444-44444444]-2-444---------------|
A|------2-4---444444]-2222-2222-44444444]-2-222---------------|
E|-0000-------222222]-0000------22222222]-0-------------------|
e|------------------------------------------------------------|
B|-------riff A 4x Then verse, chorus again-------------------|
G|-------with this ending-------------------------------------|
D|------------------------44444444----------------------------|
A|------------------------44444444-into solo------------------|
E|------------------------22222222----------------------------|

Solo 2x 1st w/A & 2nd w/B


e|------------------------------------------------------------|
B|------------------------------------------------------------|
G|-99999/11-4444444---999998----------99999/11-4444444-------|
D|----------4444444-----------4444444-----------4444444-------|
A|-77777/-9-2222222---777776-4444444--77777/-9-2222222-------|
E|----------------------------2222222-------------------------|


e|---------------------]-----------------------------------------------------|
B|---------------------]-----------------------------------------------------|
G|-pm______------------]-11111111111111111111111111111111--------------------|
D|-44444444 44444444---]-----------------------------------------------------|
A|-44444444-44444444---]--9-9-9-9-9-9-9-9-9-9-9-9-9-9-9-9--------------------|
E|-22222222-22222222---]-----------------------------------------------------|

Bridge fill 1 fill 2 chorus 2x Outro 2nd chorus


e|--3x w/ fills after]-----------]-----------]--after this---]---------------|
B|--each-------------]-/5555/5555]-5b--------]---------------]---------------|
G|---44--------------]-/6666/6666]-5b-5p3---3]---444---------]---44------4---|
D|-2-44-4------------]--I think--]--------5--]-2-444-44444444]-2-44-4---|
A|-2-22-4------------]-----------]-----------]-2-222-44444444]-2-22------2---|
E|-0----2------------]-----------]-----------]-0-----22222222]-0-------------|

bass fill LISTEN TO THE SONG

To play the most songs, including Employer’s Market by Home Grown by ukulele, the most crucial basic ukulele chords to learn are C chord, D chord, G chord, and Em chord.
These set you up to play a ton of songs, and each of them is easy to master.

Leave a Reply

Your email address will not be published.