Everything by Anathema Ukulele Chords

Posted on

If you are searching for Everything ukulele chords, you already come to the right place.
You can play versatile instrument Everything using ukulele or guitar.
This song by Anathema can also be played by that instruments.
=

Everything chords has rhythm and included in We’re Here Because We’re Here (2010) album.
You can also get another musical genres, including jazz ukulele chords, country music ukulele chords, pop ukulele chords, world music ukulele chords, and rock ukulele chords here.

Everything by Anathema Ukulele Chords


Anathema – Everything
Chords

This Tab was made by Rjjena
Visit my youtube Channel:
http://www.youtube.com/user/RjJena

EADGBe
A#11 |:X07640
Bsus4/A|:X04440
A |:X02220
F#m7 |:2XX220
Fmaj7 |:1XX210
C |:X32010 or X32013
G |:320033 or 355433
Am7 |:X0X553
Fsus2 |:XX3563

Piano-Line (Intro+Verse):

[Bsus4/A]


e|:-0-----0-----0-----0-----0-----0-----0-----0-----|
B|:---4-----4-----4-----4-----4-----4-----4-----4---|
G|:-----6-----6-----6-----6-----4-----4-----4-----4-|
D|:-------------------------------------------------|
A|:--0---0-0-----0---0-0-----0---0-0-----0---0-0----|
E|:-------------------------------------------------|

[Bsus4/A]


e|:-0-----0-----0-----0-----0-----0-----0-----0-----|
B|:---2-----2-----2-----2-----4-----4-----4-----4---|
G|:-----2-----2-----2-----2-----4-----4-----4-----4-|
D|:-------------------------------------------------|
A|:--0---0-0-----0---0-0-----0---0-0-----0---0-0----|
E|:-------------------------------------------------|

Needed [Bsus4/A]time to clear my [Bsus4/A]mind and
breathe the [Bsus4/A]free air find some [Bsus4/A]peace there
I used to [Bsus4/A]keep my heart in [Bsus4/A]jail but
choice was [Bsus4/A]love or fear of [Bsus4/A]pain and

Pre-Chorus:


e|:-0-----0-----0-----0-----0-----0-----0-----0-----|
B|:---2-----2-----2-----2-----1-----1-----1-----1---|
G|:-----2-----2-----2-----2-----2-----2-----2-----2-|
D|:-------------------------------------------------|
A|:-------------------------------------------------|
E|:--2---2-2-----2---2-2-----1---1-1-----1---1-1----|

I… chose…


e|:-0-----0-----0-----0-----3-----3-----3-----3-----|
B|:---1-----1-----1-----1-----3-----3-----3-----3---|
G|:-----0-----0-----0-----0-----4-----4-----4-----4-|
D|:-------------------------------------------------|
A|:--3---3-3-----3---3-3----------------------------|
E|:--------------------------3---3-3-----3---3-3----|

love…

(Chorus:)


e|:-3-----3-----3-----3-----3-----3-----3-----3-----|
B|:---5-----5-----5-----5-----6-----6-----6-----6---|
G|:-----5-----5-----5-----5-----5-----5-----5-----5-|
D|:--------------------------3---3-3-----3---3-3----|
A|:--0---0-0-----0---0-0----------------------------|
E|:-------------------------------------------------|

cos everything… is energy.. and..


e|:-3-----3-----3-----3-----3-----3-----3-----3-----|
B|:---5-----5-----5-----5-----3-----3-----3-----3---|
G|:-----5-----5-----5-----5-----4-----4-----4-----4-|
D|:-------------------------------------------------|
A|:--3---3-3-----3---3-3----------------------------|
E|:--------------------------3---3-3-----3---3-3----|

energy… is you…. and

me and everything is energy and you and me


(Verse2)
Light shines [Bsus4/A]in through open [Bsus4/A]window
shines in[Bsus4/A]side your heart and [Bsus4/A]soul and
light will [Bsus4/A]guide your way through [Bsus4/A]time and
love will [Bsus4/A]help you heal your [Bsus4/A]mind and

(Pre-Chorus2)
life… will… be..

(Chorus) Repeat

Enjoy!!
This Tab was made by Rjjena
Visit my youtube Channel:
http://www.youtube.com/user/RjJena

To play the this songs, including Everything by Anathema by ukulele, the most crucial basic ukulele chords to learn are C chord, D chord, G chord, and Em chord.
These set you up to play a many of songs, and each of them is easy to learn.

Leave a Reply

Your email address will not be published.