Everything by Delirious? Ukulele Chords

Posted on

If you are looking for Everything ukulele chords, you already come to the best place.
You can play versatile instrument Everything using ukulele or guitar.
This song by Delirious? can also be played by that instruments.
=

Everything chords has rhythm and included in GLO (2000) album.
You can also get another musical style, including jazz ukulele chords, country music ukulele chords, pop ukulele chords, world music ukulele chords, and rock ukulele chords here.

Everything by Delirious? Ukulele Chords

CD: Glo
c2000 Curious? Music
Tabbed by Steve Cruickshank
(postlambjam@hotmail.com)

Verse: x2
[D/F#]
[D/F#]

Electric guitar: A (x02255)

Chorus:
(A A/C# E D/F#) x2

Chorus tabs:
Acoustic/mandolin strums these chorus:


e---12----------12----------12-----------12---------------------------------
B---10----------10-----------9-----------10---------------------------------
G----9-----------9-----------9-----------11---------------------------------
D---------------------------------------------------------------------------
A---------------------------------------------------------------------------
E---------------------------------------------------------------------------

[A/C#] [D/F#]
Electric:


e---12-10-9-----12-10-9-----12-10-------------------------------------------
B---------------------------------12-----12-10------------------------------
G---------------------------------------------------------------------------
D---------------------------------------------------------------------------
A---------------------------------------------------------------------------
E---------------------------------------------------------------------------

[A/C#] [D/F#]

Verse 2: Electric riff, played twice


e---------------------------------------------------------------------------
B----5/14----10----5~~~~~~~~------------------------------------------------
G---------------------------------------------------------------------------
D---------------------------------------------------------------------------
A---------------------------------------------------------------------------
E---------------------------------------------------------------------------

Verse:
[D/F#]
[D/F#]
[D/F#]
(chorus)

Bridge:
The chorus is played instrumentally, and the electric guitars and keyboards
play random high A and C# notes (it’s pretty much impossible to tab)

Chorus

An electric with distortion comes in to play the G and D/F#


e---------------------------------------------------------------------------
B---------------------------------------------------------------------------
G---------------------------------------------------------------------------
D---5-5-5-5-5-5-5-5----4-4-4-4-4-4-4-4--------------------------------------
A---5-5-5-5-5-5-5-5----5-5-5-5-5-5-5-5--------------------------------------
E---3-3-3-3-3-3-3-3----2-2-2-2-2-2-2-2--------------------------------------

[D/F#]

To play the this songs, including Everything by Delirious? by ukulele, the most crucial basic ukulele chords to learn are C chord, D chord, G chord, and Em chord.
These set you up to play a ton of songs, and each of them is easy to master.

Gravatar Image
Like to play Ukulele and Sudoku Game

Leave a Reply

Your email address will not be published. Required fields are marked *