Everything Evil by Coheed and Cambria Ukulele Chords

Posted on

If you are looking for Everything Evil ukulele chords, you’ve visit to the right site.
You can play versatile instrument Everything Evil using ukulele or guitar.
This song by Coheed and Cambria can also be played by that instruments.
=

Everything Evil chords has rhythm and included in The Second Stage Turbine Blade (2002) album.
You can also find another musical genres, including jazz ukulele chords, country music ukulele chords, pop ukulele chords, world music ukulele chords, and rock ukulele chords here.

Everything Evil by Coheed and Cambria Ukulele Chords


-------------------------------------------------------|

Everything Evil – Coheed And Cambria–|
Tabbed by:Me
Email:swisdude@hotmail.co.uk

Tuning:
Gtr I (E A D G B E) – ‘palm muted’
Gtr II (E A D G B E) – ‘w/ dist.’
Gtr III (E A D G B E) – ‘w/ dist.’
Gtr IV (E A D G B E) – ‘w/ pitch’
Gtr V (E A D G B E) – ‘clean’
Gtr VI (E A D G B E) – ‘palm muted’

Intro
Moderately Q.108
[3/4] Gtrs I, VI
Wx5


|--------||
|--------||
|--------||
|--------||
|--------||
|--------||

Verse Part 1
[G/B]


PM--------------------------------------------------------------|

E E E E E S S S S S S E E E E E E E E E E E E E E E E


|---------------|-------------------|-----------------|-------------|
|---------------|-------------------|-----------------|-------------|
|---------------|-------------------|-----------------|---0-----0---|
|---------------|-------------------|-----------------|-----7-----0-|
|-9-9---9-9-----|-7-9---9----7------|-10-10---10-10---|-9-----9-----|
|-7-7---7-7-7-7-|-----7---10---9-10-|--7--7----7--7---|-------------|


PM----------------------------------------------------------------|

E E E E E S S S S S S E E E E E E E E E S S S S S S E E E E


|---------------|-------------------|---------------|-----------------|
|---------------|-------------------|---------------|-----------------|
|---------------|-------------------|---------------|-----------------|
|---------------|-------------------|---------------|-----------------|
|-5-5---5-5-----|-0-(5)-4-5-7-5-4-0-|-5-5---5-5-----|-0-5-4-5-7-5-4-0-|
|-3-3---3-3-0-3-|-------------------|-3-3---3-3-0-3-|-----------------|

Gtr II
E E E E E E W E E E E E E W
| | | | | | | |
[/] [/] [/] [/] [/][/][/][/]


PM--------------------------------------------------------------|

E E E E E S S S S S S E E E E E E E E E E E E E E E E


||----------------|-------------------|-----------------|-------------|
||o---------------|-------------------|-----------------|-------------|
||----------------|-------------------|-----------------|---0-----0---|
||----------------|-------------------|-----------------|-----7-----0-|
||o-9-9---9-9-----|-7-9---9----7------|-10-10---10-10---|-9-----9-----|
||--7-7---7-7-7-7-|-----7---10---9-10-|--7--7----7--7---|-------------|

1.,2.
E E E E E E W E E E E E E
| | | | | | | |
[/] [/] [/] [/] [/][/][/][/]


PM--------------------------------------------|

E E E E E S S S S S S E E E E E E E E E S S


|---------------|-----------------|---------------|
|---------------|-----------------|---------------|
|---------------|-----------------|---------------|
|---------------|-----------------|---------------|
|-5-5---5-5-----|-0-5-4-5-7-5-4-0-|-5-5---5-5-----|
|-3-3---3-3-0-3-|-----------------|-3-3---3-3-0-3-|

3.
W E E E E E E W
| | | |
[/] [/] [/] [/]
Gtr III


PM------------|

S S S S E E E E 3x E E E E E E W


|------------------||-------------|------||
|-----------------o||-------------|------||
|------------------||-------------|------||
|------------------||-------------|------||
|-0-5-4-5-7-5-4-0-o||-5-5---5-5---|------||
|------------------||-3-3---3-3---|------||

Verse Part 2


PM--------------------------------------|

E E E E E S S S S S S E E E E


||----------------------|-----------------------|
||o---------------------|-----------------------|
||----------------------|-----------------------|
||----------------------|-----------------------|
||o--9--9-----9--9------|--7-9----9-----7-------|
||---7--7-----7--7--7-7-|-------7---10-----9-10-|

|
| Gtr II
| E E E E E E E E E E E E


||----------------------|-----------------------|
||o---------------------|-----------------------|
||-----------16---------|-----------------------|
||--19-19-19----19-19---|-----------------------|
||o---------------------|-17---17---17-16-16-16-|
||----------------------|-----------------------|

[G/B]


|-------------------|-------------------|
|-------------------|-------------------|
|-------------------|-----0--------0----|
|-------------------|--------7--------0-|
|-10-10----10-10----|--9--------9-------|
|--7--7-----7--7----|-------------------|

|
| E E E E E E E E E E E E


|-------------------|-------------------|
|-------------------|-------------------|
|----------16-------|-------------------|
|-19-19-19----19-19-|-------------------|
|-------------------|-17-17-17-16-16-16-|
|-------------------|-------------------|

1.
E E E E E S S S S S S E E E E E E E E E S S


|---------------|-----------------|---------------|
|---------------|-----------------|---------------|
|---------------|-----------------|---------------|
|---------------|-----------------|---------------|
|-5-5---5-5-----|-0-5-4-5-7-5-4-0-|-5-5---5-5-----|
|-3-3---3-3-0-3-|-----------------|-3-3---3-3-0-3-|

2.
Gtr II
W E E E E E E W
| | | |
[/] [/] [/] [/]
S S S S E E E E E E E E E E W


|------------------||-------------|------||
|-----------------o||-------------|------||
|------------------||-------------|------||
|------------------||-------------|------||
|-0-5-4-5-7-5-4-0-o||-5-5---5-5---|------||
|------------------||-3-3---3-3---|------||

Verse Part 3
$
E E E E E E W E E E E E E W
| | | | | | | |
[/] [/] [/] [/] [/][/][/][/]
Gtrs I, VI


PM--------------------------------------------------------------|

E E E E E S S S S S S E E E E E E E E E E E E E E E E


||----------------|-------------------|-----------------|-------------|
||o---------------|-------------------|-----------------|-------------|
||----------------|-------------------|-----------------|---0-----0---|
||----------------|-------------------|-----------------|-----7-----0-|
||o-9-9---9-9-----|-7-9---9----7------|-10-10---10-10---|-9-----9-----|
||--7-7---7-7-7-7-|-----7---10---9-10-|--7--7----7--7---|-------------|

1.
E E E E E E W E E E E E E
| | | | | | | |
[/] [/] [/] [/] [/][/][/][/]


PM--------------------------------------------|

E E E E E S S S S S S E E E E E E E E E S S


|---------------|-----------------|---------------|
|---------------|-----------------|---------------|
|---------------|-----------------|---------------|
|---------------|-----------------|---------------|
|-5-5---5-5-----|-0-5-4-5-7-5-4-0-|-5-5---5-5-----|
|-3-3---3-3-0-3-|-----------------|-3-3---3-3-0-3-|

2.
W E E E E E E W
| | | |
[/] [/] [/] [/]
Gtr III


PM------------|

S S S S E E E E E E E E E S S S S S S E E E E


|------------------||---------------|-----------------||
|-----------------o||---------------|-----------------||
|------------------||---------------|-----------------||
|------------------||---------------|-----------------||
|-0-5-4-5-7-5-4-0-o||-5-5---5-5-----|-0-5-4-5-7-5-4-0-||
|------------------||-3-3---3-3-0-3-|-----------------||

Verse Part 4


PM--------------------------------------|

E E E E E S S S S S S E E E E


||----------------------|-----------------------|
||o---------------------|-----------------------|
||----------------------|-----------------------|
||----------------------|-----------------------|
||o--9--9-----9--9------|--7-9----9-----7-------|
||---7--7-----7--7--7-7-|-------7---10-----9-10-|

|
| Gtr II
| E E E E E E E E E E E E


||----------------------|-----------------------|
||o---------------------|-----------------------|
||-----------16---------|-----------------------|
||--19-19-19----19-19---|-----------------------|
||o---------------------|-17---17---17-16-16-16-|
||----------------------|-----------------------|

[G/B]


|-------------------|-------------------|
|-------------------|-------------------|
|-------------------|-----0--------0----|
|-------------------|--------7--------0-|
|-10-10----10-10----|--9--------9-------|
|--7--7-----7--7----|-------------------|

|
| E E E E E E E E E E E E


|-------------------|-------------------|
|-------------------|-------------------|
|----------16-------|-------------------|
|-19-19-19----19-19-|-------------------|
|-------------------|-17-17-17-16-16-16-|
|-------------------|-------------------|

E E E E E S S S S S S E E E E


|---------------------|-----------------------|
|---------------------|-----------------------|
|---------------------|-----------------------|
|---------------------|-----------------------|
|--5--5-----5--5------|--0-5--4-5--7--5--4--0-|
|--3--3-----3--3--0-3-|-----------------------|

|
| E E E E E E E E E E E E


|---------------------|-----------------------|
|---------------------|-----------------------|
|---------------------|-----------------------|
|---------------------|-----------------------|
|---------------------|-----------------------|
|-15-15-15-15-15-15---|-14---14---14-14-14-14-|

E E E E E S S S S S S E E E E


|---------------------|------------------------||
|---------------------|-----------------------o||
|---------------------|------------------------||
|---------------------|------------------------||
|--5--5-----5--5------|--0-5--4-5--7--5--4--0-o||
|--3--3-----3--3--0-3-|------------------------||

|
| E E E E E E E E E E E E


|---------------------|------------------------||
|---------------------|-----------------------o||
|---------------------|------------------------||
|---------------------|------------------------||
|---------------------|-----------------------o||
|-15-15-15-15-15-15---|-14---14---14-14-14-14--||

Chorus
[D/F#Dsus2/E] [D/F#G5]
[4/4] E E E E E E E E E E E E E E E E +E E E Q E E E E Q. E E E E


|-----------------|-----------------|-------------------|------------------|
|-----------------|-----------------|-------------------|------------------|
|-----------------|-----------------|-------------------|------------------|
|-----------------|-----------------|-------------------|------------------|
|-5-5---5-5---5-5-|---5-5---5-5---5-|-(5)-5-5-----5---5-|-5--------5-5---5-|
|-3-3---3-3---3-3-|---3-3---3-2---0-|-(0)-0-3-----0---0-|-3--------0-2---3-|

|
| E E E E E E E E E E E E E E E E E E E E E E E E E E E E E E E E


|-----------------|-----------------|-------------------|------------------|
|-----7-----7-----|-7-----7-----7---|-----7-----7-----7-|------7-----7-----|
|-4-4---4-4---4-4-|---4-4---4-4---4-|--4----4-4---4-4---|-4-4----4-4---4-4-|
|-----------------|-----------------|-------------------|------------------|
|-----------------|-----------------|-------------------|------------------|
|-----------------|-----------------|-------------------|------------------|

+E E E Q E E E E Q. E [D/F#Dsus2/E]E E E +E E E Q E E E E Q. E [D/F#G5]E E E


|-------------------|------------------|------------------|-----------------|
|-------------------|------------------|------------------|-----------------|
|-------------------|------------------|------------------|-----------------|
|-------------------|------------------|------------------|-----------------|
|-(5)-5-5-----5---5-|-5--------5-5---5-|-(5)-5-5----5---5-|-5------5-5---5--|
|-(3)-3-3-----3---3-|-3--------3-2---0-|-(0)-0-3----0---0-|-3------0-2---3--|

|
| E E E E E E E E E E E E E Q E +E E E Q E E E E Q. E E E E


|-------------------|------------------|------------------|-----------------|
|--7------7-----7---|---7------7-------|------------------|-----------------|
|-----4-4---4-4---4-|-4----4-4---------|------------------|-----------------|
|-------------------|------------------|------------------|-----------------|
|-------------------|----------------5-|-(5)-5-5----5---5-|-5------5-5---5--|
|-------------------|----------------0-|-(0)-0-0----0---0-|-0------0-2---3--|

E E E Q E E E E Q. E [D/F#Dsus2/E]E E E +E E E Q E E E E Q. E [D/F#G5]E E E


|------------------|----------------|------------------|-----------------|
|------------------|----------------|------------------|-----------------|
|------------------|----------------|------------------|-----------------|
|------------------|----------------|------------------|-----------------|
|--5--5-5----5---5-|-5------5-5---5-|-(5)-5-5----5---5-|-5------5-5---5--|
|--3--3-3----3---3-|-3------3-2---0-|-(0)-0-3----0---0-|-3------0-2---3--|

|
| +E E E Q E E E E Q. E E E E +E E E Q E E E E Q. E E E E


|------------------|----------------|------------------|-----------------|
|------------------|----------------|------------------|-----------------|
|------------------|----------------|------------------|-----------------|
|------------------|----------------|------------------|-----------------|
|-(5)-5-5----5---5-|-5------5-5---5-|-(5)-5-5----5---5-|-5------5-5---5--|
|-(3)-3-3----3---3-|-3------3-2---0-|-(0)-0-0----0---0-|-0------0-2---3--|

To Coda
+E E E Q E E E E Q. E [D/F#Dsus2/E]E E E +E E E Q E E E E Q. E [D/F#]E Q


|------------------|----------------|------------------|----------------|
|------------------|----------------|------------------|----------------|
|------------------|----------------|------------------|----------------|
|------------------|----------------|------------------|----------------|
|-(5)-5-5----5---5-|-5------5-5---5-|-(5)-5-5----5---5-|-5------5-5-----|
|-(3)-3-3----3---3-|-3------3-2---0-|-(0)-0-3----0---0-|-3------0-2-----|

|
| +E E E Q E E E E Q. E E E E +E E E Q E E E E Q. E E Q


|------------------|----------------|------------------|----------------|
|------------------|----------------|------------------|----------------|
|------------------|----------------|------------------|----------------|
|------------------|----------------|------------------|----------------|
|-(5)-5-5----5---5-|-5------5-5---5-|-(5)-5-5----5---5-|-5------5-5-----|
|-(3)-3-3----3---3-|-3------3-2---0-|-(0)-0-0----0---0-|-0------0-2-----|


[3/4] Gtrs II, III


|-----------------|-----------------|
|-----------------|-----------------|
|---------10-10---|-10-10---10-10---|
|-10-10---10-10---|-10-10---10-10---|
|-10-10---10-10---|-10-10---10-10---|
|--8--8----8--8---|--8--8----8--8---|

D.S. al Coda

E E E E E E E E E E E E [4/4] +Q H.


|-----------------|------------------|---------------|
|-----------------|------------------|---------------|
|-10-10---10--9---|--9--9----9--9--9-|--(9)---------|
|-10-10---10-10---|-10-10---10-10-10-|-(10)---------|
|-10-10---10-10---|-10-10---10-10-10-|-(10)---------|
|--8--8----8--8---|--8--8----8--8--8-|--(8)---------|

&

[3/4] Gtrs II, III


|-----------------|-----------------|-----------------|
|-----------------|-----------------|-----------------|
|---------10-10---|-10-10---10-10---|-10-10---10--9---|
|-10-10---10-10---|-10-10---10-10---|-10-10---10-10---|
|-10-10---10-10---|-10-10---10-10---|-10-10---10-10---|
|--8--8----8--8---|--8--8----8--8---|--8--8----8--8---|

Gtr III Gtr IV
E E E E E E +H. +H. +H Q


|----------------8-|--(8)-----------|-(8)--------|-(8)--------||
|------------------|----------------|------------|-------------||
|--9--9----9--9----|----------------|------------|-------------||
|-10-10---10-10----|----------------|------------|-------------||
|-10-10---10-10----|----------------|------------|-------------||
|--8--8----8--8----|----------------|------------|-------------||

|
| Gtr II Gtr V
| E E E E E E +Q E E E E E E H +H.


|------------------|----------------|-----0------|-------------||
|------------------|----------------|-------1----|-(1)---------||
|--9--9----9--9--9-|--(9)------0---|------------|-------------||
|-10-10---10-10-10-|-(10)----3---3-|------------|-------------||
|-10-10---10-10-10-|-(10)----------|--3---------|-------------||
|--8--8----8--8--8-|--(8)----------|------------|-------------||

Bridge
C#5 A/C# EIX E
Gtrs II, III


|------------------|-----------------|-----------------|
|------------------|-----------------|-----------------|
|------------------|-----------------|-----------------|
|------------------|-----------------|-----------------|
|-11-11---11-12-12-|-11-11---11-11---|-11-11---11-11---|
|--9--9----9--9--9-|--0--0----0--0---|-12-12---12-12---|



|-----------------|-------------------|
|-----------------|-------------------|
|-----------------|-------------------|
|-----------------|-------------------|
|-14-14---14-14---|-------------------|
|-12-12---11-11---|-7---7-9-7-|

[E/A5] [E/A5]


|--------------|-------------|-------------|-------------|-------------|
|--------------|-------------|-------------|-------------|-------------|
|--------------|-------------|-------------|-------------|-------------|
|--------------|-------------|-------------|-------------|-------------|
|-9-9---9-9s11-|-7-7---7-7---|-7-7---7-7---|-7-7---7-7---|-7-7---7-7---|
|-7-7---7-7s9-|-5-5---5-5---|-4-5---5-5---|-4-5---5-5---|-5-5---5-5---|

C#5 A/C# EIX E


||----------------------|-----------------|--------------------|
||o---------------------|-----------------|--------------------|
||----------------------|-----------------|--------------------|
||----------------------|-----------------|--------------------|
||o--11-11----11-12-12--|-11-11---11-11---|--11-11----11-11----|
||----9--9-----9--9--9--|--0--0----0--0---|--12-12----12-12----|

|
| Gtr II
| E E E E E E E E E E E E E E E E E E


||------12-------12-----|-----7-------7---|-----16-------19----|
||o-/12----12-12----12-|--9----9--9----9-|-/17----17-17----17-|
||----------------------|-----------------|--------------------|
||----------------------|-----------------|--------------------|
||o---------------------|-----------------|--------------------|
||----------------------|-----------------|--------------------|



|-------------------|------------------------|
|-------------------|------------------------|
|-------------------|------------------------|
|-------------------|------------------------|
|-14-14----14-14----|------------------------|
|-12-12----11-11----|--7----7--9--7--|

|
| E E E E E E E E E E E E


|----16-------14----|-----14----------16-----|
|-17----17-17----17-|-17-------17--17----17--|
|-------------------|------------------------|
|-------------------|------------------------|
|-------------------|------------------------|
|-------------------|------------------------|

[E/AA5]


|----------------|---------------|---------------|
|----------------|---------------|---------------|
|----------------|---------------|---------------|
|----------------|---------------|---------------|
|-9--9---9--9s11-|-7--7---7--7---|-7--7---7--7---|
|-7--7---7--7s9-|-5--5---5--5---|-4--5---5--5---|

|
| Q. Q. Q. Q. Q. Q.


|--------4-------|---------------|-4-------------|
|-5--------------|-5------5------|--------5------|
|----------------|---------------|---------------|
|----------------|---------------|---------------|
|----------------|---------------|---------------|
|----------------|---------------|---------------|

[E/AA5]E E E E E E E E E E E E 3x


|---------------|----------------||
|---------------|---------------o||
|---------------|----------------||
|---------------|----------------||
|-7--7---7--7---|-7--7---7--7---o||
|-4--5---5--5---|-5--5---5--5----||

|
| Q. Q. Q. Q. 3x


|-4-------------|----------------||
|--------5------|-5------5------o||
|---------------|----------------||
|---------------|----------------||
|---------------|---------------o||
|---------------|----------------||

Interlude

[4/4] Gtr I


PM----------------------------------------


|-----------------------|--------------------|
|-----------------------|--------------------|
|-----------------------|--------------------|
|-----------------------|--------------------|
|---2--2--2--2--2-2-2-2-|---2--2-2-2-2-2-2-2-|
|---0--0--0--0--0-0-0-0-|---0--0-0-0-0-0-0-0-|

|
| E E E E H +W


|-----12----------------|--------------------|
|-/12----12-12-12-------|-(12)---------------|
|-----------------------|--------------------|
|-----------------------|--------------------|
|-----------------------|--------------------|
|-----------------------|--------------------|


---------------------------------------|


|--------------------|---------------------|
|--------------------|---------------------|
|--------------------|---------------------|
|---4--4-4-4-4-4-4-4-|---4--4-4-4-4-4-4-4--|
|---2--2-2-2-2-2-2-2-|---2--2-2-2-2-2-2-2--|
|--------------------|---------------------|

|
| +W +W


|--------------------|---------------------|
|-(12)---------------|-(12)----------------|
|--------------------|---------------------|
|--------------------|---------------------|
|--------------------|---------------------|
|--------------------|---------------------|


PM------------------------------------------------------------------|


|-----------------|-----------------|-----------------|------------------|
|-----------------|-----------------|-----------------|------------------|
|-----------------|-----------------|-----------------|------------------|
|-----------------|-----------------|-----------------|------------------|
|-6-6-6-6-6-6-6-6-|-6-6-6-6-6-6-6-6-|-7-7-7-7-7-7-7-7-|-7-7-7-7-7-7-7-7--|
|-4-4-4-4-4-4-4-4-|-4-4-4-4-4-4-4-4-|-5-5-5-5-5-5-5-5-|-5-5-5-5-5-5-5-5--|


PM------------------------------------------------------------------|


|-----------------|-----------------|-----------------|------------------|
|-----------------|-----------------|-----------------|------------------|
|-----------------|-----------------|-----------------|------------------|
|-----------------|-----------------|-4-4-4-4-4-4-4-4-|-4-4-4-4-4-4-4-4--|
|-2-2-2-2-2-2-2-2-|-2-2-2-2-2-2-2-2-|-2-2-2-2-2-2-2-2-|-2-2-2-2-2-2-2-2--|
|-0-0-0-0-0-0-0-0-|-0-0-0-0-0-0-0-0-|-----------------|------------------|

Gtr III


PM----------------------------------------------------|

E E E E E E E E E E E E E E E E E E E E E E E E E H..


|-----------------|-----------------|-----------------|----------||
|-----------------|-----------------|-----------------|----------||
|-----------------|-----------------|-----------------|----------||
|-----------------|-----------------|-----------------|----------||
|-6-6-6-6-6-6-6-6-|-6-6-6-6-6-6-6-6-|-7-7-7-7-7-7-7-7-|-7--------||
|-4-4-4-4-4-4-4-4-|-4-4-4-4-4-4-4-4-|-5-5-5-5-5-5-5-5-|-5--------||

Outro


PM-------------------------------------|


||------------------|-------------------------|
||o-----------------|-------------------------|
||------------------|-------------------------|
||------------------|-------------------------|
||o-2-2-2-2-2-2-2-2-|--2--2--2--2--2--2--2--2-|
||--0-0-0-0-0-0-0-0-|--0--0--0--0--0--0--0--0-|

|
| Gtr II
| E E E E E E E E E E E E E E E E


||------------------|-------------------------|
||o-----------------|-------------------------|
||--9-9-9-9-4-4-4-4-|-13-13-11-11-11-11-13-13-|
||--x-x-x-x-x-x-x-x-|--x--x--x--x--x--x--x--x-|
||o-7-7-7-7-2-2-2-2-|-11-11--9--9--9--9-11-11-|
||------------------|-------------------------|

E E E E E E E E E E E E E E Q


|-------------------------|--------------------------|
|-------------------------|--------------------------|
|-------------------------|--------------------------|
|-------------------------|--------------------------|
|-11-11-11-11-11-11-11-11-|-11-11-11-11-11-11s13----|
|--9--9--9--9--9--9--9--9-|--9--9--9--9--9--9s11----|

|
| E E E E E E E E E E E E E E E E


|-------------------------|--------------------------|
|-------------------------|--------------------------|
|-16-16-16-16-16-16-16-16-|-16-16-16-16-16-16-16--16-|
|--x--x--x--x--x--x--x--x-|--x--x--x--x--x--x--x---x-|
|-14-14-14-14-14-14-14-14-|-14-14-14-14-14-14-14--14-|
|-------------------------|--------------------------|



|-------------------------|-------------------------|
|-------------------------|-------------------------|
|-------------------------|-------------------------|
|-------------------------|-------------------------|
|--9--9--9--9--9--9--9--9-|--9--9--9--9--9--9--9--9-|
|--7--7--7--7--7--7--7--7-|--7--7--7--7--7--7--7--7-|

|
| E E E E E E E E E E E E E E E E


|-------------------------|-------------------------|
|-------------------------|-------------------------|
|-21-21-21-21-21-21-21-21-|-21-21-21-21-21-21-16-16-|
|--x--x--x--x--x--x--x--x-|--x--x--x--x--x--x--x--x-|
|-19-19-19-19-19-19-19-19-|-19-19-19-19-19-19-14-14-|
|-------------------------|-------------------------|

E E E E E E E E E E E E E E E E 6x


|-------------------------|---------------------------||
|-------------------------|--------------------------o||
|-------------------------|---------------------------||
|-------------------------|---------------------------||
|--7--7--7--7--7--7--7--7-|--7--7--7--7--7--7--7--7--o||
|--5--5--5--5--5--5--5--5-|--5--5--5--5--5--5--5--5---||

|
| E E E E E E E E E E E E E E E E 6x


|-------------------------|---------------------------||
|-------------------------|--------------------------o||
|-18-18-18-18-18-18-13-13-|-16-16-16-16-16-16-16-16---||
|--x--x--x--x--x--x--x--x-|--x--x--x--x--x--x--x--x---||
|-16-16-16-16-16-16-11-11-|-14-14-14-14-14-14-14-14--o||
|-------------------------|---------------------------||

| / slide up
| slide down
| h hammer-on
| p pull-off
| ~ vibrato
| + harmonic
| x Mute note

To play the most songs, including Everything Evil by Coheed and Cambria by ukulele, the most crucial basic ukulele chords to learn are C chord, D chord, G chord, and Em chord.
These set you up to play a ton of songs, and each of them is easy to learn.

Gravatar Image
Like to play Ukulele and Sudoku Game

Leave a Reply

Your email address will not be published. Required fields are marked *