Evolve by Ani DiFranco Ukulele Chords

Posted on

If you are looking for Evolve ukulele chords, you already visit to the right place.
You can play versatile instrument Evolve using ukulele or guitar.
This song by Ani DiFranco can also be played by that instruments.
=

Evolve chords has rhythm and included in Evolve (2003) album.
You can also find another musical style, including jazz ukulele chords, country music ukulele chords, pop ukulele chords, world music ukulele chords, and rock ukulele chords here.

Evolve by Ani DiFranco Ukulele Chords

Open D7 Tuning: D,A,C,F#,A,d
natural harmonic


|--------------------------------|--------------------------------|
|------5-------------------------|------5-------------------------|
|--------------------------------|--------------------------------|x2
|----------0---------------------|----------0---------------------|
|----------------3---------------|----------------5---------------|
|0-----------7-----------4-------|0-----------7-------4---3-------|
|--------------------------------|--------------------------------|
|------5-------------------------|------5-------------------------|
|----------------x-x-------------|--------------------------------|
|----------0-----x-x-------------|----------0---------------------|
|--------------------3-----------|----------------5---------------|
|0-----------7-----------4-------|0-----------7-------4---3-------|
|--------------------------------|--------------------------------|
|------5-------------------------|------5-------------------------|
|--------------------------------|--------------------------------|
|----------0---------------------|----------0---------------------|
|----------------3---------------|----------------5---------------|
|0-----------7-----------4-------|0-----------7-----------3-------|

I


|--------------------------------|--------------------------------|
|------5-------------------------|------5-------------------------|
|--------------------------------|--------------------------------|
|----------0---------------------|----------0---------------------|
|----------------3---------------|----------------5---------------|
|0-----------7-----------4-------|0-----------7-------4---3-------|

wa. in st. wi. peo – ple mu. taller than me and


|--------------------------------|--------------------------------|
|------5-------------------------|------5-------------------------|
|--------------------------------|--------------------------------|
|----------0---------------------|----------0---------------------|
|----------------3---------------|----------------5---------------|
|0-----------7-----------4-------|0-----------7-------4---3-------|

Partly its the bo. but mostly its my chi and


|--------------------------------|--------------------------------|
|------5-------------------------|------5-------------------------|
|--------------------------------|--------------------------------|
|----------0---------------------|----------0---------------------|
|----------------3---------------|----------------5---------------|
|0-----------7-----------4-------|0-----------7-----------3-------|

I?m be comin trans fi. with nature and my pa. in it which


|--------------------------------|--------------------------------|
|------5-------------------------|--------------------------------|
|--------------------------------|--------------------------------|
|----------0---------------------|--------------------------------|
|----------------3---------------|--------------------------------|
|0-----------7-----------4-------/5-------------------------------|

I believe ju. Sig ni fies I?m finally wakin? up ?n that


|--------------------------------|--------------------------------|
|------5-------------------------|------5-------------------------|
|--------------------------------|--------------------------------|
|----------0---------------------|----------0---------------------|
|----------------3---------------|----------------5---------------|
|0-----------7-----------4-------|0-----------7-----------3-------|

mo. outside my kitchen do. Shes bonkers for th. Bare bulb


|--------------------------------|--------------------------------|
|------5-------------------------|------5-------------------------|
|--------------------------------|--------------------------------|
|----------0---------------------|----------0---------------------|
|----------------3---------------|----------------5---------------|
|0-----------7-----------4-------|0-----------7-------4---3-------|

Flyin ro. In cir cles bashin in her ex o skull and


|--------------------------------|--------------------------------|
|------5-------------------------|------5-------------------------|
|--------------------------------|--------------------------------|
|----------0---------------------|----------0---------------------|
|----------------3---------------|----------------5---------------|
|0-----------7-----------4-------|0-----------7-----------3-------|

Ou.i. t.wor.she na vi gates fine by the moon but


|--------------------------------|--------------------------------|
|------5-------------------------|--------------------------------|
|--------------------------------|--------------------------------|
|----------0---------------------|--------------------------------|
|----------------3---------------|--------------------------------|
|0-----------7-----------4-------/5-------------------------------|

Get her ro. A li. Bu. An. Shes dumb and she id


|--------------------------------|--------------------------------|
|------5-------------------------|------5-------------------------|
|--------------------------------|--------------------------------|
|----------0---------------------|----------0---------------------|
|----------------3---------------|----------------5---------------|
|0-----------7-----------4-------|0-----------7-----------3-------|

Tryin to e volve shes


|--------------------------------|--------------------------------|
|------5-------------------------|------5-------------------------|
|--------------------------------|----------------x-x-------------|
|----------0---------------------|----------0-----x-x-------------|
|----------------3---------------|--------------------5-----------|
|0-----------7-----------4-------|0-----------7-----------3-------|

Tryin to e volve shes


|--------------------------------|--------------------------------|
|------5-------------------------|------5-------------------------|
|--------------------------------|----------------x-x-------------|
|----------0---------------------|----------0-----x-x-------------|
|----------------3---------------|--------------------5-----------|
|0-----------7-----------4-------|0-----------7-----------3-------|

Tryin to e volve shes


|--------------------------------|--------------------------------|
|------5-------------------------|------5-------------------------|
|--------------------------------|----------x-x-------------------|
|----------0---------------------|----------x-x-------------------|
|----------------3---------------|----------------3---5-----------|
|0-----------7-----------4-------|0-----------------------3-------|

Tryin to e volve


|--------------------------------|--------------------------------|
|------5-------------------------|------5-------------------------|
|--------------------------------|--------------------------------|
|----------0---------------------|----------0---------------------|
|------------------3-3-----------|----------------5---5---5-------|
|0-----------7-----------4-------|0-----------7-------------------|


|--------------------------------|--------------------------------|
|------5-------------------------|------5----------------------|
|----------------x-x-------------|--------------------------|
|----------0-----x-x-------------|----------0---------------|
|--------------------3-----------|--------------------------|
|0-----------7-----------4-------|0-----------7-------------|

now lets get

I think that pretty much covers all the little bits and bobs,
Excepting Ani?s mysterious overdubs.
Remember to keep it snappy!

To play the this songs, including Evolve by Ani DiFranco by ukulele, the most crucial basic ukulele chords to learn are C chord, D chord, G chord, and Em chord.
These set you up to play a a lot of songs, and each of them is easy to master.

Leave a Reply

Your email address will not be published.