Exiles by Third Eye Blind Ukulele Chords

Posted on

If you are looking for Exiles ukulele chords, you already come to the best place.
You can play versatile instrument Exiles using ukulele or guitar.
This song by Third Eye Blind can also be played by that instruments.
=

Exiles chords has rhythm and included in Dopamine (2015) album.
You can also find other musical genres, including jazz ukulele chords, country music ukulele chords, pop ukulele chords, world music ukulele chords, and rock ukulele chords here.

Exiles by Third Eye Blind Ukulele Chords

Intro (main riff):


e|----0----0----0----0----0----------0----0----0----0----0----|
B|----3----3----3----3----3----------3----3----3----3----3----|
G|----2----2----2----2----2----------2----2----2----2----2----|
D|----0----2----4----0----0----------0----2----4----0----0----|
A|----0----0----0----2----0----------0----0----0----2----0----|
E|----0----0----0----0----0----------0----0----0----0----0----|

Verse 1:


e|------0-------0-------0-------0-------0-----------0-------0-------0-------0-------0-------|
B|------3-------3-------3-------3-------3-----------3-------3-------3-------3-------3-------|
G|------2-------2-------2-------2-------2-----------2-------2-------2-------2-------2-------|
D|------0-------2-------4-------0-------0-----------0-------2-------4-------0-------0-------|
A|------0-------0-------0-------2-------0-----------0-------0-------0-------2-------0-------|
E|------0-------0-------0-------0-------0-----------0-------0-------0-------0-------0-------|

“The studio’s red lights are a smoke-filled screen Trying to find the sound, I can’t
say what I mean”

(strum repeatedly)


e|------0-------0-------0-------0-------0-----------0-------0-------0-------0-0-0-0-0-0-0-0|
B|------3-------3-------3-------3-------3-----------3-------3-------3-------3-3-3-3-3-3-3-3|
G|------2-------2-------2-------2-------2-----------2-------2-------2-------2-2-2-2-2-2-2-2|
D|------0-------2-------4-------0-------0-----------0-------2-------4-------0-0-0-0-0-0-0-0|
A|------0-------0-------0-------2-------0-----------0-------0-------0-------2-2-2-2-2-2-2-2|
E|------0-------0-------0-------0-------0-----------0-------0-------0-------0-0-0-0-0-0-0-0|

“Are we breakin’ up the band? The naturals of darks arts, I think we like the feeling
of falling….


e|----0----0----0----0----0----------|
B|----3----3----3----3----3----------|
G|----2----2----2----2----2----------|
D|----0----2----4----0----0----------|
A|----0----0----0----2----0----------|
E|----0----0----0----0----0----------|

“Apart……”

Verse 2:


e|------0-------0-------0-------0-------0-----------0-------0-------0-------0-------0-------|
B|------3-------3-------3-------3-------3-----------3-------3-------3-------3-------3-------|
G|------2-------2-------2-------2-------2-----------2-------2-------2-------2-------2-------|
D|------0-------2-------4-------0-------0-----------0-------2-------4-------0-------0-------|
A|------0-------0-------0-------2-------0-----------0-------0-------0-------2-------0-------|
E|------0-------0-------0-------0-------0-----------0-------0-------0-------0-------0-------|

“And I remember everything I said, And I won’t take it back”


e|------0-------0-------0-------0-------0-----------0-------0-------0-------0-------0-------|
B|------3-------3-------3-------3-------3-----------3-------3-------3-------3-------3-------|
G|------2-------2-------2-------2-------2-----------2-------2-------2-------2-------2-------|
D|------0-------2-------4-------0-------0-----------0-------2-------4-------0-------0-------|
A|------0-------0-------0-------2-------0-----------0-------0-------0-------2-------0-------|
E|------0-------0-------0-------0-------0-----------0-------0-------0-------0-------0-------|

“In the silence of this breakup all my cracks are exposed, and then the night goes black
on black.”

Chorus 1:

Cause I recognize something in you that m[Dsus2/E]akes me feel I’m not alone
I recognize s[Dsus2/E]omething deeper than I’ve ever known
And we’ll never ch[Dsus2/E]ange, we’ll never have a home
This is ours now for [Dsus2/E]awhile…


e|----0----0----0----0----0----------0----0----0----0----0----|
B|----3----3----3----3----3----------3----3----3----3----3----|
G|----2----2----2----2----2----------2----2----2----2----2----|
D|----0----2----4----0----0----------0----2----4----0----0----|
A|----0----0----0----2----0----------0----0----0----2----0----|
E|----0----0----0----0----0----------0----0----0----0----0----|

“We’re exiles We are exiles…”

Verse 3:


e|------0-------0-------0-------0-------0----------0-------0-------0-------0-------0|
B|------3-------3-------3-------3-------3----------3-------3-------3-------3-------3|
G|------2-------2-------2-------2-------2----------2-------2-------2-------2-------2|
D|------0-------2-------4-------0-------0----------0-------2-------4-------0-------0|
A|------0-------0-------0-------2-------0----------0-------0-------0-------2-------0|
E|------0-------0-------0-------0-------0----------0-------0-------0-------0-------0|

“A kitchen light at midnight, our flatmates Before she makes
are asleep me go, it’s about to go deep”


e|------0-------0-------0-------0-------0----------0-------0-------0-------0-------0-------|
B|------3-------3-------3-------3-------3----------3-------3-------3-------3-------3-------|
G|------2-------2-------2-------2-------2----------2-------2-------2-------2-------2-------|
D|------0-------2-------4-------0-------0----------0-------2-------4-------0-------0-------|
A|------0-------0-------0-------2-------0----------0-------0-------0-------2-------0-------|
E|------0-------0-------0-------0-------0----------0-------0-------0-------0-------0-------|

“You’re gonna miss us when we grow up, I’ll And I may be a mystery, but you were
miss your sweetness and your grief beyond belief”

Chorus 2:

When Ziggy Stardust plays at [Dsus2/E]a karaoke bar
And I can’t remember the DJ’s name, e[Dsus2/E]veryone knows who you are
And we’ll never ch[Dsus2/E]ange, we’ll never have a home
This is ours now for [Dsus2/E]awhile…

(Short instrumental break…can play song with or without it)

Bridge:

We’re exil[Dsus2/E]es We are exil[Dsus2/E]es so
We are exiles so[Dsus2/E] slow
We are [Dsus2/E]exiles


e|----0----0----0----0----0----------|
B|----3----3----3----3----3----------|
G|----2----2----2----2----2----------|
D|----0----2----4----0----0----------|
A|----0----0----0----2----0----------|
E|----0----0----0----0----0----------|

Verse 4:


e|------0-------0-------0-------0-------0----------0-------0-------0-------0-------0-------|
B|------3-------3-------3-------3-------3----------3-------3-------3-------3-------3-------|
G|------2-------2-------2-------2-------2----------2-------2-------2-------2-------2-------|
D|------0-------2-------4-------0-------0----------0-------2-------4-------0-------0-------|
A|------0-------0-------0-------2-------0----------0-------0-------0-------2-------0-------|
E|------0-------0-------0-------0-------0----------0-------0-------0-------0-------0-------|

“Come and sing it out, you’re the Come and sing it out
next best thing to the devil at the crossroads, at the
crossroads yeah


e|------0-------0-------0-------0-------0----------0-------0-------0-------0-------0-------|
B|------3-------3-------3-------3-------3----------3-------3-------3-------3-------3-------|
G|------2-------2-------2-------2-------2----------2-------2-------2-------2-------2-------|
D|------0-------2-------4-------0-------0----------0-------2-------4-------0-------0-------|
A|------0-------0-------0-------2-------0----------0-------0-------0-------2-------0-------|
E|------0-------0-------0-------0-------0----------0-------0-------0-------0-------0-------|

“Ooooo ooooo oooooo oooooooo”

Chorus 3:

Cause I recognize something in you that m[Dsus2/E]akes me feel I’m not alone
I recognize s[Dsus2/E]omething deeper than I’ve ever known
And we’ll never ch[Dsus2/E]ange, we’ll never have a home
This is ours now for [Dsus2/E]awhile…


e|----0----0----0----0----0----------0----0----0----0----0----|
B|----3----3----3----3----3----------3----3----3----3----3----|
G|----2----2----2----2----2----------2----2----2----2----2----|
D|----0----2----4----0----0----------0----2----4----0----0----|
A|----0----0----0----2----0----------0----0----0----2----0----|
E|----0----0----0----0----0----------0----0----0----0----0----|

“We’re exiles We are exiles…”

To play the most songs, including Exiles by Third Eye Blind by ukulele, the most important basic ukulele chords to learn are C chord, D chord, G chord, and Em chord.
These set you up to play a ton of songs, and each of them is easy to master.

Leave a Reply

Your email address will not be published.