Eyes of a Criminal by Chimaira Ukulele Chords

Posted on

If you are searching for Eyes of a Criminal ukulele chords, you have visit to the right place.
You can play versatile instrument Eyes of a Criminal using ukulele or guitar.
This song by Chimaira can also be played by that instruments.
=

Eyes of a Criminal chords has rhythm and included in The Impossibility of Reason (2003) album.
You can also get another musical style, including jazz ukulele chords, country music ukulele chords, pop ukulele chords, world music ukulele chords, and rock ukulele chords here.

Eyes of a Criminal by Chimaira Ukulele Chords


Band : Chimaira
Song : Eyes Of A Criminal
Album : Impossibility Of Reason

Notes: Chimaira rocks!! If you haven’t already go check out their newest cd Resurrection

h – Hammer On
p – Pull Off
/ – Slide
– Palm Mute
T – Triplet
~ – Let Ring
X# – How Many Times Played

This is step by step so you dont get lost because a few things change along the way the
is not tabbed in here but it will come soon

so rate this tab comment on it tell me your favorite chimaira song or whatever


Gtr.1


D ]---------------------------------[ X6
A ]---------------------------------[
F ]---------------------------------[
C ]-1-------------------------------[
G ]-1-0-0-0-1p0-0-1-0-0-1p0-0-0-1/3-[
C ]---0-0-0-1p0-0-1-0-0-1p0-0-0-1/3-[

Gtr.1+2


D ]-------------[ X1
A ]-------------[
F ]-------------[
C ]-1-----------[
G ]-1-0-0-0-1p0-[
C ]---0-0-0-1p0-[


Gtr.1+2


D ]-----------------[ X1
A ]-----------------[
F ]-----------------[
C ]---1---1---------[
G ]-0-1-0-1-0-0-1h3-[
C ]-0---0---0-0-1h3-[

D ]---------------------------------[ X3
A ]---------------------------------[
F ]---------------------------------[
C ]-1-------------------------------[
G ]-1-0-0-0-1p0-0-1-0-0-1p0-0-0-1/3-[
C ]---0-0-0-1p0-0-1-0-0-1p0-0-0-1/3-[

Gtr.1+2


D ]-------------[ X1
A ]-------------[
F ]-------------[
C ]-1-----------[
G ]-1-0-0-0-1p0-[
C ]---0-0-0-1p0-[

Gtr.1+2


D ]-----------------[ X1
A ]-----------------[
F ]-----------------[
C ]---1---1---------[
G ]-0-1-0-1-0-0-1h3-[
C ]-0---0---0-0-1h3-[

D ]---------------------------------[ X3
A ]---------------------------------[
F ]---------------------------------[
C ]-1-------------------------------[
G ]-1-0-0-0-1p0-0-1-0-0-1p0-0-0-1/3-[
C ]---0-0-0-1p0-0-1-0-0-1p0-0-0-1/3-[

Gtr.1+2


D ]-------------[ X1
A ]-------------[
F ]-------------[
C ]-1-----------[
G ]-1-0-0-0-1p0-[
C ]---0-0-0-1p0-[

[Pre-Chorus]
Gtr.1+2 Gtr.1


D ]-----------------[]-----------------[]----[]----[ X2
A ]-----------------[]-----------------[]----[]----[
F ]-----------------[]-----------------[]----[]----[
C ]---1---1---------[]-1-0~-------1-0~-[]-1~-[]-3~-[
G ]-0-1-0-1-0-0-1h3-[]-1-0~-------1-0~-[]-1~-[]-1~-[
C ]-0---0---0-0-1h3-[]-----------------[]----[]----[

Ending #1
Ending #2

[Pre-Chorus]
Gtr.2


D ]------------[]----[]----[
A ]------------[]----[]----[
F ]-6-7---6--7-[]-6--[]-13-[
C ]------------[]----[]----[
G ]-4-5---4--5-[]-4--[]-11-[
C ]------------[]----[]----[

End #1
End #2


Gtr.1


D ]--------------------------------[ X4
A ]--------------------------------[
F ]--------------------------------[
C ]--------------------------------[
G ]-1-0-0-1-0-3-0-0-0--------------[
C ]-1-0-0-1-0-3-0-0-0--111-333-444-[

T T T

Gtr.2


D ]--------------------[ X4
A ]--------------------[
F ]---[
C ]--------------------[
G ]--------------------[
C ]--------------------[

1/4 Bend Through All and Back Down
The feed back you hear after this part is Chris Spicuzza cupping his hand around the
systems antenna

Gtr.2


D ]--------------------[ X1
A ]--------------------[
F ]---[
C ]--------------------[
G ]--------------------[
C ]--------------------[

Gtr.1+2


D ]---------------------------------[ X3
A ]---------------------------------[
F ]---------------------------------[
C ]-1-------------------------------[
G ]-1-0-0-0-1p0-0-1-0-0-1p0-0-0-1/3-[
C ]---0-0-0-1p0-0-1-0-0-1p0-0-0-1/3-[


Gtr.1+2


D ]---------------------------------[
A ]---------------------------------[
F ]---------------------------------[
C ]-----1-----1-----1-----1---------[
G ]-----1-----1-----1-----1-0-0-1h3-[
C ]-000---000---000---000---0-0-1h3-[

D ]---------------------------------[ X3
A ]---------------------------------[
F ]---------------------------------[
C ]-1-------------------------------[
G ]-1-0-0-0-1p0-0-1-0-0-1p0-0-0-1/3-[
C ]---0-0-0-1p0-0-1-0-0-1p0-0-0-1/3-[

Gtr.1+2


D ]-------------[ X1
A ]-------------[
F ]-------------[
C ]-1-----------[
G ]-1-0-0-0-1p0-[
C ]---0-0-0-1p0-[

Gtr.1+2


D ]-----------------[ X1
A ]-----------------[
F ]-----------------[
C ]---1---1---------[
G ]-0-1-0-1-0-0-1h3-[
C ]-0---0---0-0-1h3-[

D ]---------------------------------[ X3
A ]---------------------------------[
F ]---------------------------------[
C ]-1-------------------------------[
G ]-1-0-0-0-1p0-0-1-0-0-1p0-0-0-1/3-[
C ]---0-0-0-1p0-0-1-0-0-1p0-0-0-1/3-[

Gtr.1+2


D ]-------------[ X1
A ]-------------[
F ]-------------[
C ]-1-----------[
G ]-1-0-0-0-1p0-[
C ]---0-0-0-1p0-[

[Pre-Chorus]
Gtr.1+2 Gtr.1


D ]-----------------[]-----------------[]----[]----[ X2
A ]-----------------[]-----------------[]----[]----[
F ]-----------------[]-----------------[]----[]----[
C ]---1---1---------[]-1-0~-------1-0~-[]-1~-[]-3~-[
G ]-0-1-0-1-0-0-1h3-[]-1-0~-------1-0~-[]-1~-[]-1~-[
C ]-0---0---0-0-1h3-[]-----------------[]----[]----[

Ending #1
Ending #2

[Pre-Chorus]
Gtr.2


D ]------------[]----[]----[
A ]------------[]----[]----[
F ]-6-7---6--7-[]-6--[]-13-[
C ]------------[]----[]----[
G ]-4-5---4--5-[]-4--[]-11-[
C ]------------[]----[]----[

End #1
End #2


Gtr.1


D ]--------------------------------[ X4
A ]--------------------------------[
F ]--------------------------------[
C ]--------------------------------[
G ]-1-0-0-1-0-3-0-0-0--------------[
C ]-1-0-0-1-0-3-0-0-0--111-333-444-[

T T T

Gtr.2


D ]--------------------[ X4
A ]--------------------[
F ]---[
C ]--------------------[
G ]--------------------[
C ]--------------------[

1/4 Bend Through All and Back Down

[Post Chorus]
Gtr.1 Clean


D ]---------------------------------[
A ]---------------------------------[
F ]---------0---------------0-------[
C ]-----0-------0-------0-------0---[
G ]---6---6---6---6---6---6---6---6-[
C ]-0---------------0---------------[

Gtr.1 Clean


D ]--------------------[
A ]--------------------[
F ]--------------------[
C ]--0--0--0---0--0--0-[
G ]--------------------[
C ]-4--5--7--11--8--7--[

Gtr.1 Clean


D ]---------------------------------[
A ]---------------------------------[
F ]---------0---------------0-------[
C ]-----0-------0-------0-------0---[
G ]---6---6---6---6---6---6---6---6-[
C ]-0---------------0---------------[

Gtr.2 Light Distortion


D ]-----------------[
A ]-----------------[
F ]-----------------[
C ]-----------------[
G ]-----------------[
C ]-4-5--7--11--8-7-[

Solo – I do not have it tabbed out yet but i will get to it when i can and will post it
here

[Solo Rythm]
Gtr.1


D ]---------------------------------[ X4
A ]---------------------------------[
F ]---------------------------------[
C ]-7------------------------7----7-[
G ]-5-6-----0----------------5----5-[
C ]---6-0-0-0-0-0-0-00000000---00---[

D ]---------------------------------[ X2
A ]---------------------------------[
F ]---------------------------------[
C ]-7------------------------7----7-[
G ]-5-6-----6----------------5----5-[
C ]---6-6-6-6-6-6-6-66666666---66---[

D ]---------------------------------[ X2
A ]---------------------------------[
F ]---------------------------------[
C ]-7------------------------7----7-[
G ]-5-6-----0----------------5----5-[
C ]---6-0-0-0-0-0-0-00000000---00---[

[Pre-Chorus]
Gtr.1


]-----------------[]----[]----[ X2
]-----------------[]----[]----[
]-----------------[]----[]----[
]-1-0~-------1-0~-[]-1~-[]-3~-[
]-1-0~-------1-0~-[]-1~-[]-1~-[
]-----------------[]----[]----[

Ending #1
Ending #2

[Pre-Chorus]
Gtr.2


D ]------------[]----[]----[
A ]------------[]----[]----[
F ]-6-7---6--7-[]-6--[]-13-[
C ]------------[]----[]----[
G ]-4-5---4--5-[]-4--[]-11-[
C ]------------[]----[]----[

End #1
End #2


Gtr.1


D ]--------------------------------[ X4
A ]--------------------------------[
F ]--------------------------------[
C ]--------------------------------[
G ]-1-0-0-1-0-3-0-0-0--------------[
C ]-1-0-0-1-0-3-0-0-0--111-333-111-[

T T T

Gtr.2


D ]--------------------[X4
A ]--------------------[
F ]---[
C ]--------------------[
G ]--------------------[
C ]--------------------[

[Break Down]
Gtr.1+2


D ]-----------------[
A ]-----------------[
F ]-----------------[
C ]-----------------[
G ]-0-0-------------[
C ]-0-0-111-333-111-[

Gtr.1+2
D ]—[
A ]—[
F ]—[
C ]—[
G ]-0-[
C ]-0-[

Gtr.1+2


D ]-----------------[
A ]-----------------[
F ]-----------------[
C ]-----------------[
G ]-0-0-------------[
C ]-0-0-111-333-111-[

Lyrics


This rage has overcome, No more will I shun
These thoughts I’ve had, This lie I’ve lived
I let them put the blame on me, Engulfed in hate
Retaliate, You can’t conceal these thoughts
You can’t disguise this rage

[Pre-Chorus]
You have
Overstepped
Your boundaries
Now I’ve got


I’ve got your back against the wall
Forever trapped
Staring through the eyes of a criminal


A broken home, Left alone
An excuse you used, Don’t bullsht me
Save all the breath that you can breathe
Engulfed in flames ,Incinerate
You can’t conceal my thoughts
And you can’t disguise my hate

[Post Chorus]
Staring through my eyes

To play the most songs, including Eyes of a Criminal by Chimaira by ukulele, the most important basic ukulele chords to learn are C chord, D chord, G chord, and Em chord.
These set you up to play a ton of songs, and each of them is easy to master.

Gravatar Image
Like to play Ukulele and Sudoku Game

Leave a Reply

Your email address will not be published. Required fields are marked *