Fear of a Blank Planet by Porcupine Tree Ukulele Chords

Posted on

If you are looking for Fear of a Blank Planet ukulele chords, you’ve visit to the best place.
You can play versatile instrument Fear of a Blank Planet using ukulele or guitar.
This song by Porcupine Tree can also be played by that instruments.
=

Fear of a Blank Planet chords has rhythm and included in Fear of a Blank Planet (2007) album.
You can also find another musical genres, including jazz ukulele chords, country music ukulele chords, pop ukulele chords, world music ukulele chords, and rock ukulele chords here.

Fear of a Blank Planet by Porcupine Tree Ukulele Chords


Tuning: Drop-D

e





-------------------------------I

Intro: 2x


e|------------------------------------------------------------------------------------------------|
B|--------------------------------------------------------6-----------6-----------5-----------5---|
G|--7-7---7-7---7-7---7-7---7-7---7-7---7-7---7-7---7-7-----7---7-7-----7---7-7-----7---7-7-----7-|
D|0-----0-----0-----0-----6-----6-----6-----6-----5-----5-----5-----5-----6-----6-----6-----6-----|
A|------------------------------------------------------------------------------------------------|
D|------------------------------------------------------------------------------------------------|
-------------------------------I

Drums enter

Riff A: 2x


e|------------------------------------------------------------------------------------------------|
B|--------------------------------------------------------6-----------6-----------5-----------5---|
G|--7-7---7-7---7-7---7-7---7-7---7-7---7-7---7-7---7-7-----7---7-7-----7---7-7-----7---7-7-----7-|
D|0-----0-----0-----0-----6-----6-----6-----6-----5-----5-----5-----5-----6-----6-----6-----6-----|
A|------------------------------------------------------------------------------------------------|
D|------------------------------------------------------------------------------------------------|
-------------------------------I

Bass, keyboard and weird noise enters

Riff A: 2x


-------------------------------I

Vocals enter

Riff A: 5x


-------------------------------I

Distortion Guitar enter

Riff A: 2x
Riff B: 1x


e|----------------------------------------------------------------------------------------------------------------------------------------|
B|----------------------------------------------------------------------------------------------------------------------------------------|
G|----------------------------------------------------------------------------------------------------------------------------------------|
D|----------------------------------------------------------------------------------------------------------------------------------------|
A|--5------5---5-5---5------5---5-5---5------5---5-5---5------5---5-5---5------5---5-5---6------6---6-6---5------5---5-5---3------3---3-3-|
D|0---0--0---0-----0---0--0---0-----0---0--0---0-----0---0--0---0-----0---0--0---0-----6---6--6---6-----5---5--5---5-----3---3--3---3-----|
-------------------------------I

Vocals

Riff A: 2x
Riff B: 1x


-------------------------------I

Chorus:


e|-------------------------------------------------------------------|
B|-------------------------------------------------------------------|
G|-------------------------------------------------------------------|
D|5--------1--------10--------6--------5--------1--------10--------6-|
A|5--------1--------10--------6--------5--------1--------10--------6-|
D|5--------1--------10--------6--------5--------1--------10--------6-|
-------------------------------I

Riff B: 1x

then

Riff A: 2x
Riff B: 1x


-------------------------------I

Chorus: 2x


-------------------------------I

Riff C: 4x


e|---------------------------------------------------------------|
B|-----------------------------------------6----------------5----|
G|--7----7----7----7----7----7----7-----7-----7----7-----7-----7-|
D|0----0----0----6----6----6----5----5-----------6----6----------|
A|---------------------------------------------------------------|
D|---------------------------------------------------------------|
-------------------------------I

Riff D: 4x


e|--------------------------------------------------------------------------------|
B|----9---9-------9-------9---9-------9-------9---9-------9-------9---9-------9---|
G|--7---7---7---7---7---7---7---7---7---7---7---7---7---7---7---7---7---7---7---7-|
D|0-----------0-------8-----------8-------9-----------9-------8-----------8-------|
A|--------------------------------------------------------------------------------|
D|--------------------------------------------------------------------------------|
-------------------------------I

Drum Break


-------------------------------I

Riff E (Heavy Riff): 4x


e|-----------------------------------------------------------------|
B|-----------------------------------------------------------------|
G|-----------------------------------------------------------------|
D|------------------------------6--6---5--5------------------------|
A|----5---4----------3---2------6--6---5--5--------11----10~----10-|
D|0-0---0---0-0-3--4---4---3-0--6--6-0-5--5--10-12----12-----12----|
-------------------------------I

Riff A: 5x
Riff B: 3x


-------------------------------I

I haven’t figured out the whole solo ’cause I’m too n00b, and I have no idea what are the chords after the solo.

Buy the new Fear Of A Blank planet album when it comes out!

To play the most songs, including Fear of a Blank Planet by Porcupine Tree by ukulele, the most crucial basic ukulele chords to learn are C chord, D chord, G chord, and Em chord.
These set you up to play a a lot of songs, and each of them is easy to learn.

Leave a Reply

Your email address will not be published.