Fire Maple Song by Everclear Ukulele Chords

Posted on

If you are looking for Fire Maple Song ukulele chords, you already come to the best place.
You can play versatile instrument Fire Maple Song using ukulele or guitar.
This song by Everclear can also be played by that instruments.
=

Fire Maple Song chords has rhythm and included in World of Noise (1993) album.
You can also get another musical style, including jazz ukulele chords, country music ukulele chords, pop ukulele chords, world music ukulele chords, and rock ukulele chords here.

Fire Maple Song by Everclear Ukulele Chords


Everclear, Fire Maple Song.
Song Written by: Art Alexakis
Albulm: World Of Noise (1993)
tab written By Thomas Fleming
in the fall of 2000 9-19

(hey it is our first tab so giv us a break 🙂

Standard EADGBE tuning

h Hammer on


e------------------
B------------------
G-------1----------
D-1-h-2---2-0------
A------------------
E------------------

This is the main riff played throughout most of the
song w/ varations we got the varations tho :)… 2 an
a half times through this riff is when Art starts to
sing……”Turn Away from the pain you dont want”
[Verse 1]


e---------------------------------------------------
B----------------999999-----------------------------
G---------9-h-11----------------9-h-11--999999------
D--9-h-11----------------9-h-11---------------------
A---------------------------------------------------
E---------------------------------------------------

NOW I CANT SMILE 🙂


e---0------4------2------0---------
B---0------4------2------0---------
G---1------4------2------1---------
D---2------6------4------2---------
A---2------6------4------2---------
E---0------4------2------X---------

[Verse 2] Lying in the grass with the wind round
us as we smile an talk……(again start to sing
after two an a half times through)


e---------------------------------------------
B---------------------------------------------
G---------------------------------------------
D--------------666666-------------------------
A--------7-h-9---------------7-h-9--777777----
E--7-h-9---------------7-h-9------------------

I CANT SMILE


e---x-x-----x-x-----x-x------x---------
B---x-x-----x-x-----x-x------x---------
G---x-x-----6-6-----x-x------x---------
D---6-6-----6-6-----7-7------2---------
A---6-6-----4-4-----7-7------2---------
E---4-4-----x-x-----5-5------0---------

(W/ Distortion)

BRIDGE (DISTORTION)
Now….far away Yeah..around the holidays


e----------------------------------------
B----------------------------------------
G----------------------------------------
D--6--/-/-/-/------------7--/-/-/-/------
A--6-/-/-/-/-------------7-/-/-/-/-------
E--4/-/-/-/--------------5/-/-/-/--------

I still..night Lying above me….


e----------------------------------------
B----------------------------------------
G----------------------------------------
D-11--/-/-/-/------------2--/-/-/-/------
A-11-/-/-/-/-------------2-/-/-/-/-------
E--8/-/-/-/--------------0/-/-/-/--------

I CANT SMILE


e---x-x-----x-x-----x-x------x---------
B---x-x-----x-x-----x-x------x---------
G---x-x-----6-6-----x-x------x---------
D---6-6-----6-6-----7-7------2---------
A---6-6-----4-4-----7-7------2---------
E---4-4-----x-x-----5-5------0---------

(W/ Distortion)

[Verse 3]
same thing 2 an a half times into riff is when
Art starts to sing “turn away from the pain you
dont want” (DISTORTION)


e---------------------------------------------
B---------------------------------------------
G---------------------------------------------
D--------------666666-------------------------
A--------7-h-9---------------7-h-9--777777----
E--7-h-9---------------7-h-9------------------

I CANT SMILE


e---x-x-----x-x-----x-x------x---------
B---x-x-----x-x-----x-x------x---------
G---x-x-----6-6-----x-x------x---------
D---6-6-----6-6-----7-7------2---------
A---6-6-----4-4-----7-7------2---------
E---4-4-----x-x-----5-5------0---------

(W/ Distortion)


e---------------------------------------------
B---------------------------------------------
G---------------------------------------------
D--------------666666-------------------------
A--------7-h-9---------------7-h-9--777777----(let last note ring)
E--7-h-9---------------7-h-9------------------

Thats it…..
take a deep braeth and smile
simple enough rrrrrriiiighht.

Lyrics(taken from inside of World of Noise Booklet)
Turn away from the pain you don’t want
Turning down to avoid them when they call
Strange words I heard
A long long time ago
I wish I could go back to a summer time
I knew more than twenty years ago
Can’t lay between the sheets
We lie underneath the maple tree
Now I can’t smile

Lying in the grass with the wind around us as we smile and talk
Listen to your Grandma sing those country songs
She’d tell us how the maple turns to fire
Every four years
We’d sit in the grass all summer just to watch the autumn come around…
I can’t smile

Now I live alone
And you’re so far away
I call you once a year
Just around the holidays
I still see you in the night
Lying above me in the grass…
I can’t smile

Turn away from the pain you don’t want
Turning down to avoid them when they call
I can’t believe this letter that says you died
I think I’m gonna go back to the house in North Carolina
And lay in the backyard
Get drunk and let the leaves just bury me
Bury me…
I can’t smile

while you’re at it (plug)

To play the most songs, including Fire Maple Song by Everclear by ukulele, the most crucial basic ukulele chords to learn are C chord, D chord, G chord, and Em chord.
These set you up to play a ton of songs, and each of them is easy to master.

Gravatar Image
Like to play Ukulele and Sudoku Game

Leave a Reply

Your email address will not be published. Required fields are marked *