Fishnet Stockings by Stray Cats Ukulele Chords

Posted on

If you are searching for Fishnet Stockings ukulele chords, you’ve come to the best place.
You can play versatile instrument Fishnet Stockings using ukulele or guitar.
This song by Stray Cats can also be played by that instruments.
=

Fishnet Stockings chords has rhythm and included in Stray Cats (1981) album.
You can also get another musical genres, including jazz ukulele chords, country music ukulele chords, pop ukulele chords, world music ukulele chords, and rock ukulele chords here.

Fishnet Stockings by Stray Cats Ukulele Chords

The Stray Cats “Fishnet Stockings”

You can see me playing along with this on YouTube:
http://www.youtube.com/watch?vSCSZmxOH0D8

Verse 1


|---|---|---|---------|
|---|---|---|---------|
|-0-|-0-|-0-|-0-2-3-4-|
|---|---|---|---------|


|-----2-------2-------------------------------------|---------------|
|-0-4---4-0-4---4-----2-4-----0-1-2-------2-0-------|---------------|
|-----------------0-4-----0-4-------0-2-4-----4-2-0-|-0--0-0-0--0-0-|
|---------------------------------------------------|---------------|

Verse 2


|---|---|---|---------|
|---|---|---|---------|
|-0-|-0-|-0-|-0-2-3-4-|
|---|---|---|---------|


|-----2-------2-------------------------------------|---------------|
|-0-4---4-0-4---4-----2-------0-1-2-------2-0-------|---------------|
|-----------------0-4---4-0-4-------0-2-4-----4-2-0-|-0--0-0-0--0-0-|
|---------------------------------------------------|---------------|

Solo 1


|---------------------------------|---------------------------------|
|-------4-7-4-----------4-5-4-----|---4-7-7---4-5-6-7-----4---------|
|---4-7-------7-4---4-7-------7-6-|-5-------5---------4-7-----4-5-6-|
|-5---------------5---------------|-------------------------5-------|


|---------------------------------|---------------------------------|
|-----------4-5-6-7---------4-5-6-|-7-------7-----4-7-----4-7-5-4---|
|-7-----4-5---------4-5-6-7-------|---4-7-4---4-7-----4-7---------7-|
|---5-7---------------------------|---------------------------------|


|-------------------------2-------|---------------------------------|
|---------------------2-4---4-2---|-2-------2-----------------------|
|-5-3-2-3-5-3-2-1-0-4-----------4-|---5-4-2---5-4-2---4-5-6-7-5-4-2-|
|---------------------------------|-----------------5---------------|

Verse 3


|---|---|---|---------|
|---|---|---|---------|
|-0-|-0-|-0-|-0-2-3-4-|
|---|---|---|---------|

( Tab from: http://www.guitartabs.cc/tabs/s/stray_cats/fishnet_stockings_btab.html )


|-----2-------2-4-2-------0------------------------|---------------|
|-0-4---4-0-4---------2-4---2-0---2-------2-0------|---------------|
|-------------------4-----------4---0-2-4-----4-2-0|-0--0-0-0--0-0-|
|--------------------------------------------------|---------------|

Solo 2


|---------------------------------|-------4-------------------------|
|-----------4-5-6-7-----4-7-5-4---|---4-7-----4-5-6-7-----4---------|
|---4-5-6-7---------4-7---------7-|-5-------5---------4-7-----4-5-6-|
|-5-------------------------------|-------------------------5-------|


|---------------------------------|---------------------------------|
|-----------4-5-6-7---------4-5-6-|-7-----4-------4-------4-------4-|
|-7-----4-5---------4-5-6-7-------|---4-7-----4-7-----4-7-----4-7---|
|---5-7---------------------------|---------5-------5-------5-------|


|-------4-------4-----------------|---------------------------------|
|---4-7-----4-7---------4-5-4-----|-----------4-5-6-7---------4-5-6-|
|-5-------5---------4-7-------5-6-|-7-----4-7---------4-5-6-7-------|
|-----------------5---------------|---5-7---------------------------|


|---------------------------------|-------------------------2-------|
|-7-------------4-7-5-4-5-7-6-5-4-|---------------------2-4---4-2---|
|---4-7-4---4-7-------------------|-5-3-2-3-5-3-2-1-0-4-----------4-|
|---------5-----------------------|---------------------------------|
|---1-4-1-------------------------|
|-2-------2-0---------0-1-2-0-----|
|-------------4-2-0-4---------4-2-|
|---------------------------------|

Verse 4


|---|---|---|---------|
|---|---|---|---------|
|-0-|-0-|-0-|-0-2-3-4-|
|---|---|---|---------|


|-----2-------2-4----------------------------------|---------------|
|-0-4---4-0-4---------2-------2-4-2-------2-0------|---------------|
|-----------------0-4---4-0-4-------0-2-4-----4-2-0|-0--0-----0--0-|
|--------------------------------------------------|---------------|

AdumbPees on YouTube

To play the this songs, including Fishnet Stockings by Stray Cats by ukulele, the most crucial basic ukulele chords to learn are C chord, D chord, G chord, and Em chord.
These set you up to play a many of songs, and each of them is easy to master.

Leave a Reply

Your email address will not be published.