For Martha by The Smashing Pumpkins Ukulele Chords

Posted on

If you are looking for For Martha ukulele chords, you have visit to the right site.
You can play versatile instrument For Martha using ukulele or guitar.
This song by The Smashing Pumpkins can also be played by that instruments.
=

For Martha chords has rhythm and included in Other Songs album.
You can also get other musical style, including jazz ukulele chords, country music ukulele chords, pop ukulele chords, world music ukulele chords, and rock ukulele chords here.

For Martha by The Smashing Pumpkins Ukulele Chords

Song: For Martha
Release: Adore
Artist: The Smashing Pumpkins
Authors: 1. Michael Ries
2. LuNaG0dess@aol.com
3. Cssio
Tuning: Eb

This is my favorite pumpkins song to date,it is so beautiful.
I read that this is about his mother who recently passed away.
Tune down a half step.
Fills 1 and 2 and 3 are all piano but they sound good played
like I tabbed them below.

Fill 1


|----------------------------------------
|----------------------------------------
|------------------10--10-------------
|-----10-12--------------10-----12-
|-10----------10----------------------
|-------------------------------10------

Fill 2


|------------------------------------------------------------
|------------------------------------------------------------
|------------------------------------------------------------
|-12-12-12--13------8----8----10-10-10--12-12-
|------------------------------------------------------------
|------------------11---6--6---6--8--8--8---10-10---

Fill 3


|-------------------------------------------------------------------------------------------
|-------------------------------------------------------------------------------------------
|--------10---------------------------------------------------10-------------------------
|---10------10---10-------10-10--8--------8-----10------10---10---8---8------
|-8----8-------8------------10------------10-----8------8-------8-------8----8---8-
|------------------------8--8-------------------------------------------------6-6----6---

Fill 4


|----------------------------
|----------------------------
|-12--10-10-8-8-7---3-
|----------------------------
|----------------------------
|----------------------------

INTRO-Fingerpicked


G-F#-G-F#-F-D#-F-Fill 1 x3-Fill 2-Fill 3 x1 1/2-Dm-C-Fm

VERSE-clean electric
whenever I run
whenever I run to you lost one
it’s never done
just hanging on

Fill 4 Gm
the past has let me be
Fill 4 Gm
returning as if dream
Fill 4 Gm Fm C
shattered as belief

Fill 1
if you have to go don’t say goodbye
Fill 1
if you have to go don’t you cry
Fill 1
if you have to go I will get by
Fill 2 A#
someday I’ll follow you and see you on the other side
but for the grace of love
I’d will the meaning of
heaven from above
but for the grace of love
I’d will the meaning of
heaven from above

Fill 4 Gm
your picture out of time
Fill 4 Gm
left aching in my mind
Fill 4 Gm Fm C
shadows kept alive

Fill 1
If you have to go don’t say goodbye
Fill 1
If you have to go don’t you cry
Fill 1
If you have to go I will get by
Fill 2
I will follow you and see you on the other side


Fill 3 x1 1/2-Dm-C-G-F#-G-F#-F-Db-F
Solo Figure-(chords over solo-A#-G#-C-Dm-G#-F#-A#)
|------------------------------------------------------------------------------------
|------------------------------------------------------------------------------------
|------------------------------------------------------------------------------------
|-8---------------------17--10---------------17--19--6-------------------15-
|-8--13h15--15/20------10--15h17-17-----------6--11h13-13/18----
|-6---------------------------8---------------------------4------------------------

Solo figure x2
(w/solo figure)
But for the grace of love
(w/solo figure)
who’d will the meaning of
(w/solo figure)
heaven from above
(w/solo figure)
But for the grace of love
(w/solo figure)
who’d will the meaning of
(w/solo figure)
heaven from above

Fill 4 Gm
long horses we are born
Fill 4 Gm
creatures more than torn
Fill 4 Gm Fm C
Mourning our way home


Fill 1-Fill 1-Fill 1-Fill 2-Fill 3x1 1/2-Dm-C-Fm-A#

There are sythesizers at the end but I’m not gonna tab those out.
Questions,comments,or corrections can be mailed to zero69mr@aol.com.

version 2


---------

tabbed by: LuNaG0dess@aol.com

intro: F#, F, F#, F, E, D

F#, C#, F#, C#, F#, C#, D, E
A, D, A, D, A, D, E, D, E

whenever I run
whenever I run to you lost one
it’s never done
just hanging on
the past has let me be
returning as if dream
shattered as belief
if you have to go don’t say goodbye
if you have to go don’t you cry
if you have to go I will get by
someday I’ll follow you and see you on the other side
but for the grace of love
I’d will the meaning of
heaven from above
but for the grace of love
I’d will the meaning of
heaven from above
your picture out of time
left aching in my mind
shadows kept alive
if you have to go don’t say goodbye
if you have to go don’t you cry
if you have to go I will get by
I will follow you and see you on the other side

A, D, A, D, E
Repeat Intro:
A, G, B, A, G, F, A

but for the grace of love
I’d will the meaning of
heaven from above
but for the grace of love
I’d will the meaning of
heaven from above
long horses we are born
creatures more than torn
mourning our way home

version 3


---------

This is the intro of the song,transcribed from piano to guitar.This tab is for standard tuning.
I just know this part of the song yet,but i will tab the rest as soon as i learn it.If you find
any mistake,if you liked the tab,if you have the other part of the song,etc,blablabla,please, e-mail me.

>>>sadmachine@tba.com.br
>>>sadmachine@hotmail.com

Cssio “Sad_maN” 😀


eI-------------------------|
bI------------2----5-------|
gI-2-----4-----------------|
dI-4--4----4-----4----4----|
aI-------------------------|
eI-------------------------|
eI-------------------------|
bI------------2----5-------|
gI-2-----4-----------------|
dI----4----4-----4----4----|
aI-------------------------|
eI-------------------------|
e|-----------------------------------------I
bI---------------3-------------------------I
gI--2----4---5-----------------------------I
dI--3--3---3---3----3----------------------I
aI-----------------------------------------I
eI-----------------------------------------I
e|-----------------------------------------I
bI---------------3-------------------------I
gI--2----4---5-----------------------------I
dI-----3---3---3----3----------------------I
aI-----------------------------------------I
eI-----------------------------------------I
eI-------------------------|
bI-----------2-----5-------|
gI-2----4------------------|
dI-2--2---2-----2-----2----|
aI-------------------------|
eI-------------------------|
eI-------------------------|
bI-----------2-----5-------|
gI-2----4------------------|
dI----2---2-----2-----2----|
aI-------------------------|
eI-------------------------|
eI-------------------------2----5---7------I
bI-----------2---3----5--------------------I
gI-2-----4---------------------------------I
dI-0--0----0---0----0----0---0----0----0---I
aI-----------------------------------------I
eI-----------------------------------------I

by Cssio “Sad_maN”

To play the this songs, including For Martha by The Smashing Pumpkins by ukulele, the most important basic ukulele chords to learn are C chord, D chord, G chord, and Em chord.
These set you up to play a ton of songs, and each of them is easy to learn.

Leave a Reply

Your email address will not be published.