Forsaken Fashion Dolls by Lordi Ukulele Chords

Posted on

If you are searching for Forsaken Fashion Dolls ukulele chords, you already come to the best place.
You can play versatile instrument Forsaken Fashion Dolls using ukulele or guitar.
This song by Lordi can also be played by that instruments.
=

Forsaken Fashion Dolls chords has rhythm and included in The Monsterican Dream (2004) album.
You can also find another musical style, including jazz ukulele chords, country music ukulele chords, pop ukulele chords, world music ukulele chords, and rock ukulele chords here.

Forsaken Fashion Dolls by Lordi Ukulele Chords

Song: Forsaken Fashion Dolls
Band: Lordi
Tabbed by: unspeakable.elvis@gmail.com

Tuning: Standard

Legend:

. palm mute
h hammer on
p pull off
/ slide up to note
slide down from note
7b9 bend 7th fret major second up
9r7 release previous bend
x dead note
(n) ghost note
~ vibrato
(9) artificial (pinch) harmonic on 9th fret
natural harmonic on the 7th fret
7b9-b9 bend 7th fret up major second, then strike string again while bent

Intro
~~~~~

[+] [+] [+] [+] [+] [+] [+] [+]


|-------------------------------------------------|
|-------------------------------------------------|
|-----[ cowbell ]---------------------------------|
|-------------------------5-----------------------|
|-------------------------5-----------------------|
|-------------------------3-----------------------|

Intro / Chorus Riff
~~~~~~~~~~~~~~~~~~~

[+] [+] [+] [+] [+] [+] [+] [+]


|-------------------------------------------------|
|-------------------------------------------------|
|-2-----5-----5--4--0--2-----2--5-----5--4--2-----|
|-2-----5-----5--4--0--2-----2--5-----5--4--2--3--|
|-0--------------------0-----0-----------------3--|
|----------------------------------------------1--|

[+] [+] [+] [+] [+] [+] [+] [+]


|-------------------------------------------------|
|-------------------------------------------------|
|-------4-----4--5--------------4-----4---5-------|
|(3)-3--4-----4--5-----3-----3--4-----4---5-------|
|(3)-3-----------------3-----3--------------------|
|(1)-1-----------------1-----1--------------------|

^not to be played; this is to show you’re holding the
chord from the previous measure

[+] [+] [+] [+] [+] [+] [+] [+]


|-------------------------------------------------|
|-------------------------------------------------|
|-------7-----7--5--4-----------5-----5--4--0--2--|
|-5-----7-----7--5--4--5-----5--5-----5--4--0--2--|
|-5--------------------5-----5-----------------0--|
|-3--------------------3-----3--------------------|

[+] [+] [+] [+] [+] [+] [+] [+]


|-------------------------------------------------|
|-------------------------------------------------|
|(2)-2--5-----5--4--0-----5--4--0--3-----3-----2--|
|(2)-2--5-----5--4--0-----5--4--0--3-----3-----2--|
|(0)-0-----------------------------1-----1-----0--|
|-------------------------------------------------|

First Verse
~~~~~~~~~~~
“even in a dream – you won’t ever be safe…”


|-------------------------------------------------|
|-------------------------------------------------|
|---------------[ bass only ]---------------------|
|---------------[ x3 bars ]---------------------|
|-------------------------------------------------|
|-------------------------------------------------|

“mmm…. in…”
[+] [+] [+] [+] [+] [+] [+] [+]


|-------------------------------------------------|
|-------------------------------------------------|
|-------------------------------------------------|
|----------------------------------------------7--|
|----------------------------------------------5--|
|----------------------------------------------5--|

“your mind…” “just one…”
[+] [+] [+] [+] [+] [+] [+] [+]


|-------------------------------------------------|
|-------------------------------------------------|
|-------------------------------------------------|
|(7)-7--7--------7-----7-----------7-----7-----7--|
|(5)-7--7--------7-----8-----------5-----8-----5--|
|(5)-5--5--5--5--5--5--5--5--5--5--5--5--5--5--5--|

. . . . . . . .

“step behind…” “they’ll drag you…”
[+] [+] [+] [+] [+] [+] [+] [+]


|-------------------------------------------------|
|-------------------------------------------------|
|-------------------------------------------------|
|(7)-7--7--------7-----7-----------7-----7-----5--|
|(5)-7--7--------7-----8-----------5-----8-----3--|
|(5)-5--5--5--5--5--5--5--5--5--5--5--5--5--5--3--|

. . . . . . . .

“deeper in…”
[+] [+] [+] [+] [+] [+] [+] [+]


|-------------------------------------------------|
|-------------------------------------------------|
|-------------------------------------------------|
|(5)-5--5--------5-----5-----------5-----5-----5--|
|(3)-5--5--------5-----5-----------5-----5-----3--|
|(3)-3--3--3--3--3--3--3--3--3--3--3--3--3--3--3--|

. . . . . . . .

“meet your sins…”
[+] [+] [+] [+] [+] [+] [+] [+]


|-------------------------------------------------|
|-------------------------------------------------|
|-------------------------------------------------|
|(5)-5--5--------5-----5-----------5-----5--------|
|(3)-5--5--------5-----5-----------5-----5--------|
|(3)-3--3--3--3--3--3--3--3--3--3--3--3--3--3--3--|

. . . . . . . . .

Bridge
~~~~~~
“you’re down there all alone…”


|-------------------------------------------------|
|-3-----------------------------------------------|
|-2-----------------------------------------------|
|-0--------------x--2--x--3-----------------------|
|-0--------------x--2--x--3-----------------------|
|----------------x--0--x--1-----------------------|

( Tab from: http://www.guitartabs.cc/tabs/l/lordi/forsaken_fashion_dolls_tab.html )
“never let you go…”


|-------------------------------------------------|
|-------------------------------------------------|
|-------------------------------9-----------9-----| Guitar
|----------------------------9-----------9--------| Two
|-------------------------7-----------5-----------|
|-------------------------------------------------|

| |
| |


|-------------------------------------------------|
|-------------------------------------------------|
|--------------x--2--x--4-------------2-----------| Guitar
|-5------------x--0--x--2-------------0-----------| One
|-3------------x--0--x--2-------------0-----------|
|-3---------------------0-------------------------|
|-------------------------|
|-------------------------|
|-------9-----------9-----| Guitar
|----9-----------9--------| Two
|-------------------------|
|-8-----------7-----------|

| |
| |


|-------------------------|
|-------------------------|
|-------------------------| Guitar
|-5-----------4-----------| One
|-3-----------2-----------|
|-3-----------2-----------|

Then play Intro/Chorus Riff x2 for Chorus, directly after which:

Second Verse
~~~~~~~~~~~~

First 4 bars of Second Verse, guitar plays riff from First
Verse panned extreme left with bottom heavy distortion; after that:

“but outta sight…” “does not mean it’s…”
[+] [+] [+] [+] [+] [+] [+] [+]


|---------------------------------------------------|
|---------------------------------------------------|
|---------------------------------------------------|
|-7----7--7--------7-----7-----------7-----7-----7--|
|-5----7--7--------7-----8-----------5-----8-----5--|
|-5----5--5--5--5--5--5--5--5--5--5--5--5--|

. . . . .

“outta mind… they watch you suffer…”
[+] [+] [+] [+] [+] [+] [+] [+]


|-------------------------------------------------|
|-------------------------------------------------|
|-------------------------------------------------|
|(7)-7--7--------7-----7-----------7-----7-----5--|
|(5)-7--7--------7-----8-----------5-----8-----3--|
|(5)-5--5--5--5--5--5--5--5--3--|

. .

“in your plight…” “so goddamn…”
[+] [+] [+] [+] [+] [+] [+] [+]


|-------------------------------------------------|
|-------------------------------------------------|
|-------------------------------------------------|
|(5)-5--5-----5--------5-----------5-----5-----5--|
|(3)-5--5-----5--------5-----------5-----5-----3--|
|(3)-3--3-----3--3--3--3--3--3--3--3--3--3--3--3--|

. . . . . . .

“satisfied…”
[+] [+] [+] [+] [+] [+] [+] [+]


|-------------------------------------------------|
|-------------------------------------------------|
|-------------------------------------------------|
|(5)-5--5-----5--------5-----------5-----5--------|
|(3)-5--5-----5--------5-----------5-----5--------|
|(3)-3--3-----3--3--3--3--3--3--3--3--3--3--3--3--|

. . . . . . . .

Back to Bridge, Intro/Chorus Riff x2, after which:

Solo
~~~~


|-------------------------------15-13----12----------|
|-10----------12----------13----------------15-13p12-|
|-12b14-------14b16-------15b17----------------------|
|----------------------------------------------------|
|----------------------------------------------------|
|----------------------------------------------------|
|----------------------------------------------------|
|-10----------12----------13-------------------------|
|-12b14-------14b16-------15b17----------------------|
|----------------------------------------------------|
|----------------------------------------------------|
|----------------------------------------------------|
|-20p19p17p0--19p17p15p0--20p19p17p0--19p17p15p0--|
|-------------------------------------------------|
|-------------------------------------------------|
|-------------------------------------------------|
|-------------------------------------------------|
|-------------------------------------------------|
|-20-p0-h19-p0-h17-p0-h19-p0-h20-p0-h19-p0-h17-p0-h15-p0-|
|--------------------------------------------------------|
|--------------------------------------------------------|
|--------------------------------------------------------|
|--------------------------------------------------------|
|--------------------------------------------------------|
|--------------------------------------------------------------------|
|-15b17-b17-15b17r15-13---------17---------17---------17---------17--|
|----------------------------16---------16---------16---------16-----|
|-------------------------14---------12------------------------------|
|-----------------------------------------------15---------14--------|
|--------------------------------------------------------------------|

Then play Intro/Chorus Riff x4. Final time rhythm keeps
playing Chorus riff while lead guitar plays the following
over it:

Lead over Final Chorus
~~~~~~~~~~~~~~~~~~~~~~


|-------------------------------15-13----12----------|
|-10----------12----------13----------------15-13p12-|
|-12b14-------14b16-------15b17----------------------| Play x3
|----------------------------------------------------|
|----------------------------------------------------|
|----------------------------------------------------|
|----------------------------------------------|
|-15b17-b17-15b17r15-13---------17---------17--|
|----------------------------16---------16-----|
|-------------------------14---------12--------|
|----------------------------------------------|
|----------------------------------------------|
|-------------------------|
|-------------------------|
|-14---------------------| Lead
|-------------------------| Guitar
|-------------------------|
|-------------------------|

| |
| |


|-------------------------|
|-------------------------|
|-2-----------------------| Rhythm
|-2-----------------------| Guitar
|-0-----------------------|
|-------------------------|

End.

To play the this songs, including Forsaken Fashion Dolls by Lordi by ukulele, the most important basic ukulele chords to learn are C chord, D chord, G chord, and Em chord.
These set you up to play a a lot of songs, and each of them is easy to learn.

Leave a Reply

Your email address will not be published.