Give You My Lovin’ by Mazzy Star Ukulele Chords

Posted on

If you are searching for Give You My Lovin’ ukulele chords, you’ve visit to the best place.
You can play versatile instrument Give You My Lovin’ using ukulele or guitar.
This song by Mazzy Star can also be played by that instruments.
=

Give You My Lovin’ chords has rhythm and included in She Hangs Brightly (1990) album.
You can also get other musical genres, including jazz ukulele chords, country music ukulele chords, pop ukulele chords, world music ukulele chords, and rock ukulele chords here.

Give You My Lovin’ by Mazzy Star Ukulele Chords

Date: Tue, 26 Nov 1996 20:02:57 EST
From: Brian F Mojica
Subject: TAB: GIVE YOU MY LOVING by Mazzy Star
Give You My Loving
(Sandoval/Roback)
from the album “She Hangs Brightly”
tabbed by Brian Mojica
lyrics courtesy of Kevin Jenkins
h hammer on
p pull off
/ slide up
slide down
~ vibrato
^ bend (half-, full-, two-steps etc. specified)
rbrelease bend
Intro:

----------------- ----------------- ----------------- -----------------
----------------- ----------------- ----------------- -----------------
---------------0- -------------0--- ---------------0- -------------0---
-------0-----0--- -----2-----2---0- -------0-----0--- -----2-----2---0-
-----2-----2----- -3-----3--------- -----2-----2----- -3-----3---------
-3--------------- ----------------- -3--------------- -----------------


----------------- ----------------- ----------------- -----------------
----------------- ----------------- ----------------- -----------------
---------------0- -------------0--- ---------------0- -------------0---
-------0-----0--- -----2-----2---0- -------0-----0--- -----2-----2---0-
-----2-----2----- -3-----3--------- -----2-----2----- -3-----3---------
-3--------------- ----------------- -3--------------- -----------------


-----------------
-----------------
-------------0--- repeat with below
-----2-----2---0-
-3-----3---------
-----------------


------------------------- ------------------- -------------------12----
------------------------- ------------------- ----------------------15-
----------------------12- ---14-12-14^f------ ----14^f-14rb-14^f-------
----------------12H14---- ------------------- -------------------------
----------12H14---------- ------------------- -------------------------
------------------------- ------------------- -------------------------


------------------------- -----------------------------------------
------------------------- -----------------------------------------
-14^f-14rb-12h14-12------ ---------------12---------------12h14-12-
----------------------14- ---------12h14------------12h14----------
------------------------- ---12h14------------12h14----------------
------------------------- -----------------------------------------

C C G(lovin^….seven
days..)


---------------------12------ ------------------ ----------------------
--------------------------15- --------15-------- ----------------------
-14p12----12-14-14^f--------- -14^f--------14rb- -12-------------------
-------14-------------------- ------------------ ----------------------
----------------------------- ------------------ ----------------------
----------------------------- ------------------ ----------------------

Give you my lovin’
Seven days a week
I’ll be a honey
If you’ll be sweet
I know I’m the only one for you
I know that you think this is not true
Man says it’s rainin’
Rainin’ outside
I’ll be out there in a little while
Cause you see
Rain reminds me of you
And everything has turned to you
See you in places
I’m following you
You’ll be upstairs
And I’ll be there too
Everywhere you go
I will follow
I know it won’t be the same tomorrow


People give me warnings
Stay away from you
They say you’ll hurt me
I don’t think that’s true
Discomfort arouses when I speak of you
As if you’ve been sayin’ something bad
About me
When I see you
I want to kiss you
But I know that ain’t right
So I ask if I can hold you
Oh babe I need you so bad
Oh babe I only want to make you
Glad

To play the this songs, including Give You My Lovin’ by Mazzy Star by ukulele, the most important basic ukulele chords to learn are C chord, D chord, G chord, and Em chord.
These set you up to play a many of songs, and each of them is easy to master.

Leave a Reply

Your email address will not be published.