Glasgow by Catfish and the Bottlemen Ukulele Chords

Posted on

If you are looking for Glasgow ukulele chords, you’ve come to the right site.
You can play versatile instrument Glasgow using ukulele or guitar.
This song by Catfish and the Bottlemen can also be played by that instruments.
=

Glasgow chords has rhythm and included in The Ride (2016) album.
You can also find another musical genres, including jazz ukulele chords, country music ukulele chords, pop ukulele chords, world music ukulele chords, and rock ukulele chords here.

Glasgow by Catfish and the Bottlemen Ukulele Chords


Capo 7th


e|---------------------------------------------------------------------------------------------|
B|-------1----1---0----0---0----1---1----1---0----0---0----------------------------------------|
G|----------------------------------------------------------0----0---0----0---0----0---0----0--|
D|-------2----2---0----0---0----2---2----2---0----0---0-----2----2---2----0---0----0---3----3--|
A|--0--0-0--0---0-0--0---0-0--0---0-0--0---0-0--0---0-0--0--3--3---3-3--3---3-3--3---3-3--3----|
E|---------------------------------------------------------------------------------------------|
e|-----------------------------------------------------------------------------------------------------------|
B|------------------------1----1---0----0---0----1---1----1---0----0---0-------------------------------------|
G|---0----0---0----0---------------------------------------------------------0----0---0----0---0----0---0-0--|
D|---3----2---2----2------2----2---0----0---0----2---2----2---0----0---0-----2----2---2----0---0----0---3-3--|
A|-3-3--3---3-3--3---3--0-0--0---0-0--0---0-0--0---0-0--0---0-0--0---0-0--0--3--3---3-3--3---3-3--3---3-3--3-|
E|-----------------------------------------------------------------------------------------------------------|
e|----------------------|
B|----------------------|
G|---0----0---0----0----|
D|---3----2---2----2----|
A|-3-3--3---3-3--3---3--|
E|----------------------|

[Verse 1]

“It’s good that you’re home…”


e|---------------------------------------------------------------------------------------------|
B|-------1----1---0----0---0----1---1----1---0----0---0----------------------------------------|
G|----------------------------------------------------------0----0---0----0---0----0---0----0--|
D|-------2----2---0----0---0----2---2----2---0----0---0-----2----2---2----0---0----0---3----3--|
A|--0--0-0--0---0-0--0---0-0--0---0-0--0---0-0--0---0-0--0--3--3---3-3--3---3-3--3---3-3--3----|
E|---------------------------------------------------------------------------------------------|
e|-----------------------------------------------------------------------------------------------------------|
B|------------------------1----1---0----0---0----1---1----1---0----0---0-------------------------------------|
G|---0----0---0----0---------------------------------------------------------0----0---0----0---0----0---0-0--|
D|---3----2---2----2------2----2---0----0---0----2---2----2---0----0---0-----2----2---2----0---0----0---3-3--|
A|-3-3--3---3-3--3---3--0-0--0---0-0--0---0-0--0---0-0--0---0-0--0---0-0--0--3--3---3-3--3---3-3--3---3-3--3-|
E|-----------------------------------------------------------------------------------------------------------|
e|----------------------|
B|----------------------|
G|---0----0---0----0----|
D|---3----2---2----2----|
A|-3-3--3---3-3--3---3--|
E|----------------------|

[Pre-Chorus 1]

“And oh, before you know…”


e|--------------------------------------------------------------------------------------------------|
B|--------------------------------------------------------------------------------------------------|
G|--0----0---0----0---0----0----0----0---0----0---0----0----0----0---0----0---0----0----2----2---2--|
D|--2----2---2----2---2----2----1----1---1----1---1----1----0----0---0----0---0----0----2----2---2--|
A|--2--2---2-2--2---2-2--2---2--2--2---2-2--2---2-2--2---2--2--2---2-2--2---2-2--2---0--0--0---0-0--|
E|--------------------------------------------------------------------------------------------------|
e|------------------|
B|------------------|
G|----2---2----2----|
D|----2---2----2----|
A|--4---4-4--4---4--|
E|------------------|

[Chorus 1]

“When you wrap me round your fingers baby…”


e|------------------------------------------------------------------------------------------------------|
B|------------------------------------------------------------------------------------------------------|
G|--0----0---0--0----0---0--0----0---0----0---0----0--0----0---0--0----0---0--0----0---0----0---0----0--|
D|--2----2---2--4----4---4--5----5---5----5---5----5--2----2---2--4----4---4--5----5---5----5---5----5--|
A|--3--3---3-3--5--5---5-5--5--5---5-5--5---5-5--5----3--3---3-3--5--5---5-5--5--5---5-5--5---5-5--5----|
E|------------------------------------------------------------------------------------------------------|

“And as I pick you up on Sauchiehall Street…”


e|------------------------------------------------------------------------------------------------------|
B|------------------------------------------------------------------------------------------------------|
G|--0----0---0--0----0---0--0----0---0----0---0----0--0----0---0--0----0---0--0----0---0----0---0----0--|
D|--2----2---2--4----4---4--5----5---5----5---5----5--2----2---2--4----4---4--5----5---5----5---5----5--|
A|--3--3---3-3--5--5---5-5--5--5---5-5--5---5-5--5----3--3---3-3--5--5---5-5--5--5---5-5--5---5-5--5----|
E|------------------------------------------------------------------------------------------------------|

[Verse 2]

“The bar that you love…”


e|---------------------------------------------------------------------------------------------|
B|-------1----1---0----0---0----1---1----1---0----0---0----------------------------------------|
G|----------------------------------------------------------0----0---0----0---0----0---0----0--|
D|-------2----2---0----0---0----2---2----2---0----0---0-----2----2---2----0---0----0---3----3--|
A|--0--0-0--0---0-0--0---0-0--0---0-0--0---0-0--0---0-0--0--3--3---3-3--3---3-3--3---3-3--3----|
E|---------------------------------------------------------------------------------------------|
e|-----------------------------------------------------------------------------------------------------------|
B|------------------------1----1---0----0---0----1---1----1---0----0---0-------------------------------------|
G|---0----0---0----0---------------------------------------------------------0----0---0----0---0----0---0-0--|
D|---3----2---2----2------2----2---0----0---0----2---2----2---0----0---0-----2----2---2----0---0----0---3-3--|
A|-3-3--3---3-3--3---3--0-0--0---0-0--0---0-0--0---0-0--0---0-0--0---0-0--0--3--3---3-3--3---3-3--3---3-3--3-|
E|-----------------------------------------------------------------------------------------------------------|
e|----------------------|
B|----------------------|
G|---0----0---0----0----|
D|---3----2---2----2----|
A|-3-3--3---3-3--3---3--|
E|----------------------|

[Pre-Chorus 2]

“And oh, before you know…”


e|--------------------------------------------------------------------------------------------------|
B|--------------------------------------------------------------------------------------------------|
G|--0----0---0----0---0----0----0----0---0----0---0----0----0----0---0----0---0----0----2----2---2--|
D|--2----2---2----2---2----2----1----1---1----1---1----1----0----0---0----0---0----0----2----2---2--|
A|--2--2---2-2--2---2-2--2---2--2--2---2-2--2---2-2--2---2--2--2---2-2--2---2-2--2---0--0--0---0-0--|
E|--------------------------------------------------------------------------------------------------|
e|------------------|
B|------------------|
G|----2---2----2----|
D|----2---2----2----|
A|--4---4-4--4---4--|
E|------------------|

[Chorus 2]

“When you wrap me round your fingers baby…”


e|------------------------------------------------------------------------------------------------------|
B|------------------------------------------------------------------------------------------------------|
G|--0----0---0--0----0---0--0----0---0----0---0----0--0----0---0--0----0---0--0----0---0----0---0----0--|
D|--2----2---2--4----4---4--5----5---5----5---5----5--2----2---2--4----4---4--5----5---5----5---5----5--|
A|--3--3---3-3--5--5---5-5--5--5---5-5--5---5-5--5----3--3---3-3--5--5---5-5--5--5---5-5--5---5-5--5----|
E|------------------------------------------------------------------------------------------------------|

“And as you prop me up on Sauchiehall Street…”


e|------------------------------------------------------------------------------------------------------|
B|------------------------------------------------------------------------------------------------------|
G|--0----0---0--0----0---0--0----0---0----0---0----0--0----0---0--0----0---0--0----0---0----0---0----0--|
D|--2----2---2--4----4---4--5----5---5----5---5----5--2----2---2--4----4---4--5----5---5----5---5----5--|
A|--3--3---3-3--5--5---5-5--5--5---5-5--5---5-5--5----3--3---3-3--5--5---5-5--5--5---5-5--5---5-5--5----|
E|------------------------------------------------------------------------------------------------------|

[Interlude]


e|------------------------------------------------------------------|
B|--1----1---1--0----0---0------------------------------0----0---0--|
G|--------------------------2----2---2----2---2----2----0----0---0--|
D|--2----2---2--0----0---0--2----2---2----2---2----2----------------|
A|--0--0---0-0--0--0---0-0--0--0---0-0--0---0-0--0---0--0--0---0-0--|
E|------------------------------------------------------------------|
e|------------------------------------------|
B|------------------------------------------|
G|--2----2---2--0----0---0----0---0----0----|
D|--2----2---2--0h2--2---2----2---2----2p0--|
A|--0--0---0-0--3--3---3-3--3---3-3--3------|
E|------------------------------------------|
e|------------------------------------------------------------------|
B|--1----1---1--0----0---0------------------------------0----0---0--|
G|--------------------------2----2---2----2---2----2----0----0---0--|
D|--2----2---2--0----0---0--2----2---2----2---2----2----------------|
A|--0--0---0-0--0--0---0-0--0--0---0-0--0---0-0--0---0--0--0---0-0--|
E|------------------------------------------------------------------|
e|--------------------------------------------------------|
B|--------------------------------------------------------|
G|--2----2---2--0----0---0----0---0----0---0-----0-----0--|
D|--2----2---2--2----2---2----2---2----2---0h2---2p0---2--|
A|--0--0---0-0--3--3---3-3--3---3-3--3---3-----3-3-----3--|
E|--------------------------------------------------------|

[Pre-Chorus 3]

“And oh, before you know…”


e|--------------------------------------------------------------------------------------------------|
B|--------------------------------------------------------------------------------------------------|
G|--0----0---0----0---0----0----0----0---0----0---0----0----0----0---0----0---0----0----2----2---2--|
D|--2----2---2----2---2----2----1----1---1----1---1----1----0----0---0----0---0----0----2----2---2--|
A|--2--2---2-2--2---2-2--2---2--2--2---2-2--2---2-2--2---2--2--2---2-2--2---2-2--2---0--0--0---0-0--|
E|--------------------------------------------------------------------------------------------------|
e|------------------|
B|------------------|
G|----2---2----2----|
D|----2---2----2----|
A|--4---4-4--4---4--|
E|------------------|

[Chorus 3]

“When you wrap me round your fingers baby…”


e|------------------------------------------------------------------------------------------------------|
B|------------------------------------------------------------------------------------------------------|
G|--0----0---0--0----0---0--0----0---0----0---0----0--0----0---0--0----0---0--0----0---0----0---0----0--|
D|--2----2---2--4----4---4--5----5---5----5---5----5--2----2---2--4----4---4--5----5---5----5---5----5--|
A|--3--3---3-3--5--5---5-5--5--5---5-5--5---5-5--5----3--3---3-3--5--5---5-5--5--5---5-5--5---5-5--5----|
E|------------------------------------------------------------------------------------------------------|

“And as I ps you off on Sauchiehall Street…”


e|------------------------------------------------------------------------------------------------------|
B|------------------------------------------------------------------------------------------------------|
G|--0----0---0--0----0---0--0----0---0----0---0----0--0----0---0--0----0---0--0----0---0----0---0----0--|
D|--2----2---2--4----4---4--5----5---5----5---5----5--2----2---2--4----4---4--5----5---5----5---5----5--|
A|--3--3---3-3--5--5---5-5--5--5---5-5--5---5-5--5----3--3---3-3--5--5---5-5--5--5---5-5--5---5-5--5----|
E|------------------------------------------------------------------------------------------------------|

Lyrics:

[Verse 1]

It’s good that you’re home
It’s good to spend a night without him checking my phone for you baby
We talk about life as she caught me up on drinks in no time

[Pre-chorus 1]

And oh, before you know we’ll be falling in drunk and I’ll be letting you know

That when you wrap me around your fingers baby
And you make me do that sht I never do
And I pick you up on Sauchiehall street
I know I want you to myself again

[Verse 2]

That bar that you loved
Lock us in and let us keep on singing out lungs on their bar stools
On the walk back yours you made me fall in love with Glasgow

[Pre-chorus 2]

And oh, before you know I’ll be carrying you over the threshold

Cause when you wrap me around your fingers baby
And you make me do that sht I’ve never done
And as you prop me up on Sauchiehall street
I know I want you to myself again

[Pre-chorus 3]

And oh, before you know we’ll be falling in drunk and I’ll be letting you know

And when you wrap me around your fingers baby
And you make me do that sht I’ve never done
And as I ps you off on Sauchiehall street
I know I want you to myself again.

To play the most songs, including Glasgow by Catfish and the Bottlemen by ukulele, the most crucial basic ukulele chords to learn are C chord, D chord, G chord, and Em chord.
These set you up to play a ton of songs, and each of them is easy to learn.

Leave a Reply

Your email address will not be published.