Go the Distance by Michael Bolton Ukulele Chords

Posted on

If you are searching for Go the Distance ukulele chords, you’ve visit to the best place.
You can play versatile instrument Go the Distance using ukulele or guitar.
This song by Michael Bolton can also be played by that instruments.
=

Go the Distance chords has rhythm and included in All That Matters (1997) album.
You can also find other musical genres, including jazz ukulele chords, country music ukulele chords, pop ukulele chords, world music ukulele chords, and rock ukulele chords here.

Go the Distance by Michael Bolton Ukulele Chords

Go The Distance by Michael Bolton
Hercules Theme

Chords by alex_72886

CHORDS USED:
[Bm/A] [A/C#] [D/F#] [D/A] [A/G]


e/---2-----3-----0-----2-----x-----0-----x-----2-----2-----2-----0-----|
B/---3-----3-----2-----3-----3-----3-----2-----2-----3-----3-----2-----|
G/---2-----0-----2-----4-----4-----2-----2-----3-----2-----2-----2-----|
D/---0-----0-----2-----4-----4-----2-----2-----4-----0-----x-----2-----|
A/---x-----2-----0-----2-----0-----0-----4-----4-----0-----0-----x-----|
E/---x-----3-----x-----x-----x-----x-----x-----2-----2-----x-----3-----|

[A/D] [G/D] [Bb/D] [C/E] [F#/A#] [E/G#] [G/B] [Gm/Bb]


e/---0-----5-----3-----1-----x-----0----(6)---(4)----2-----3-----3-----|
B/---0-----5-----3-----1-----3-----1-----7-----5-----4-----3-----3-----|
G/---0-----6-----4-----2-----3-----0-----6-----4-----4-----0-----3-----|
D/---2-----0-----0-----3-----3-----2-----x-----x-----4-----0-----x-----|
A/---2-----x-----x-----3-----5-----3-----x-----x-----2-----2-----1-----|
E/---0-----x-----x-----1-----x-----0-----6-----4-----x-----x-----x-----|


e/---0-----7-----|
B/---3-----5-----|
G/---2-----5-----|
D/---0-----0-----|
A/---x-----x-----|
E/---x-----x-----|

Intro: D G A D G A D

Verse I:

I have often dreamed, of a far off place
Where a hero?s welcome[Bm/A], would be waiting for me
Where the crowds [A/C#]will cheer, when they see my face
And a voice keeps sayin[Bm/A]g, this is where I?m meant to be

Chorus I:

I?ll be t[D/F#]here someday, [D/A]I can go the distance[A/G]
I will f[D/F#]ind my way, [D/A]if I can be strong[A/G]
I know [D/F#]every mile, will be worth my while
When I go the dis[A/C#]tance, I?ll be right where I belong

Interlude: D A/D G/D (x2)

Verse II:

Down an unkn[A/C#]own road, to embrace my fate
Though that road may wander, it will lead me to you
And a thousand years, would be worth[A/C#] the wait
It might take a lifetime, but somehow I?ll see it through

Chorus II:

And I [D/F#]won?t look back, [D/A]I can go the distance[A/G]
And I?ll s[D/F#]tay on track, no, I [D/A]won?t accept defeat[A/G]
It?s an [D/F#]uphill slope, but I won?t lose hope
Till I go the dis[A/C#]tance, and my journey is complete

Interlude: D A/D G/D (x2)

Bridge:

But to look beyond the gl[Bb/D]ory is the h[C/E]ardest p[A/C#]art
For a hero?s strength[D/F#] is measured by his[F#/A#] heart

Instrumental: E/G# F#/A# B (x2) G/B A/C# D
[Gm/Bb] [D/A] [A/G]

Chorus III:

Like a sh[D/F#]ooting star, [D/A]I will go the distance[A/G]
I will s[D/F#]earch the world, [D/A]I will face its? harms[A/G]
I don?t [D/F#]care how fa[E/G#]r, [F#/A#]I can go the distance[Bm/A]
Till I find my he[A/C#]ro?s welcome, waiting in your arms

Outro: G/D Cmaj9 A/D G/D D A/D (x2) D/A

I will s[D/F#]earch the world, I will face it?s harms
Till I find my he[A/C#]ro?s welcome, waiting in your arms

To play the this songs, including Go the Distance by Michael Bolton by ukulele, the most crucial basic ukulele chords to learn are C chord, D chord, G chord, and Em chord.
These set you up to play a ton of songs, and each of them is easy to learn.

Leave a Reply

Your email address will not be published.