Hall of Scalding Vats by Buckethead Ukulele Chords

Posted on

If you are searching for Hall of Scalding Vats ukulele chords, you’ve visit to the best site.
You can play versatile instrument Hall of Scalding Vats using ukulele or guitar.
This song by Buckethead can also be played by that instruments.
=

Hall of Scalding Vats chords has rhythm and included in Decoding the Tomb of Bansheebot (2007) album.
You can also get other musical genres, including jazz ukulele chords, country music ukulele chords, pop ukulele chords, world music ukulele chords, and rock ukulele chords here.

Hall of Scalding Vats by Buckethead Ukulele Chords

Album-Decoding the Tomb of Bansheebot
Tabbed by: mikef1269

Intro play X2


E-------------8-7----------------11-10--------------14-13--13-12--12-11--11--|
B-----------5------------------8------------------11-----15-----14-----13----|
G---------5------------------8------------------11---------------------------|
D-------7-----------------10------------------13-----------------------------|
A-----7----------------10------------------13--------------------------------|
E-5-8-------------8-11----------------11-14----------------------------------|

\\\\ \\\\ \\\\ \ \ \

\\\\ \\\\ \\\\ \ \ \

Play intro X1 over:

\\\\ \\\\ \\\\ \ \ \


E----------------------------------------|
B----------------------------------------|
G-4-----4-----4--------------------------|
D-3-----3-----3--let ring----------------|
A-2-----2-----2--------------------------|
E-1-----1-----1--------------------------|

0:37 Let ring throughout play X5


E-0--------0-------0--------0-------0--------0------0---------0----------|
B---8--------8-------8--------8-------8-------8-------8---------8--------|
G-----11-------11------11-------11------10------10------10--------10-----|
D--------9-------9--------9-------9--------10-----10-------10--------10--|
A------------------------------------------------------------------------|
E------------------------------------------------------------------------|

Gtr.2 enter 3rd time.


E---------------------------------------------------------------------------|
B---------------------------------------------------------------------------|
G---------------------------------------------------------------------------|
D-2-2---------------2-2--------------3-3--------------3-3-------------------|
A-2-2---------------2-2--------------3-3--------------3-3-------------------|
E-0-0---------------0-0--------------1-1--------------1-1-------------------|

Gtr 1. Play X4


E--------------------------------------------------------------------------|
B--------------------------------------------------------------------------|
G-----------------7----------5---4-5-4-----------------------7-------------|
D---------------5----------5------------7-5-7-7-7-9-7-10-9-7---10-9-10-----|
A---------7-5-7------7-5-7----------------------------------------------10-|
E--------------------------------------------------------------------------|

Gtr 2.


E--------------------------------------------------------------------------|
B--------------------------------------------------------------------------|
G----7---------------------------------------------------------------------|
D-2--7----2----------2-------------------7-----7-----7-----7---------------|
A-2--5----2----------2-------------------7-----7-----7-----7---------------|
E-0-------0----------0-------------------5-----5-----5-----5---------------|

1:37 Gtr 1.x4


E-----------------------------------------------------------|
B--------1-0----------1-0----------1-0----------1-0---------|
G-----------------------------------------------------------|
D----2-----------2-------------2-----------2----------------|
A--3---3-------3---3---------2---2-------2---2--------------|
E-0----------0--------------0-----------0-------------------|
E-----------------------------------------------|
B-----------------------------------------------|
G-----------------------------------------------|
D-----------------7-6---------------------------|
A---------6-5-9-8-----9-8-6-5-------------------|
E-5-4-8-7---------------------8-7---------------|

Both Guitars X4


E---------------------------------------------------------------------|
B---------------------------------------------------------------------|
G---------------------------------------------------------------------|
D---------------------------------7-7-6-6-----------------------------|
A-----------------6-6-5-5-9-9-8-8---------9-9-8-8-6-6-5-5-------------|
E-5-5-4-4-8-8-7-7-----------------------------------------8-8-7-7-----|

Both Gtrs X3 (notes in parentheses 3rd time only)


E---------------------------------------------------------------------------|
B---------------------------------(10-10-9-9-8-8-7-7)-----------------------|
G-------------------------7-7-7-7--10-10-9-9-8-8-7-7-(10-10-9--9--8-8-7-7)--|
D---------4-4-4-4-8-8-8-8-----------------------------11-11-10-10-9-9-8-8---|
A-5-5-5-5-------------------------------------------------------------------|
E---------------------------------------------------------------------------|
E------------------------------------------------------------------------|
B------------------------------------------------------------------------|
G------------------------------------------------------------------------|
D----------------------------------7-7-6-6-------------------------------|
A-----------------6-6-5-5-9-9-8-8----------9-9-8-8-6-6-5-5---------------|
E-5-5-4-4-8-8-7-7------------------------------------------8-8-7-7-------|

Both Gtrs: G#5 F5 B5 G#5 D5 B5 F5

Gtr. Enters 2:47 let ring throughout, 3/4 time


E-----------------------------------------------------|
B-----------------------------------------------------|
G-----------------------------------------------------|
D----8---8--------6---6-------4--4-------6--6---------|
A--5---5---5----5---5---5---5---5--5---5---5--5-------|
E-6-----------6------------6----------6---------------|

3:02, I’ll try to notate the time as best I can, this gets pretty strange. Just count
and two and three and, etc. Follow every note to its beat, it will work out.

1 + 2 + 3 + 4 + 5 + 6 + 7 1 + 2 + 3 + 1 + 2 + 3 + 4 + 5 + back to start


E-----------------0-------0--------------------------------------|
B---------------6---6---6----------------------------------------|
G-------------8-------8------------------------------------------|
D---7-----8----------------------7-----6-------------------------|
A---6-----7----------------------6-----5-----------6-5-9-8-6-5---|
E-0-----0----------------------0-----0-----5-4-8-7---------------|

Play X 3 1/2

3:25
Use your middle finger (m) and hammer on’s (h) along with pick


E----------------------------------------------|
B----------------------------------------------|
G------------------------5------7-5------------|
D-9-------9----- 5-----------------------------| X2
A---h7-7----h7-7---h7-7----h7-7----------------|
E----------------------------------------------|


E-------------------------------------------|
B-------------------------------------------|
G-------------------------------------------|
D-4------4--------------5------7-5----------| X2
A----------------5--------------------------|
E---h7-7---h7-7----h7-7---h7-7--------------|

Play the whole riff X4, then:


E----------------------------------------------------------------------|
B----------------------------------------------------------------------|
G----------------------------------------------------------------------|
D-4------4------4------4------4-4---2-------2-------2-------2------2-2-|
A----------------------------------------------------------------------|
E---h5-5---h5-5---h5-5---h5-5---------h3-3----h3-3----h3-3----h3-3-----|

Play X2


E-----------------------------------------------------------|
B-----------------------------------------------------------|
G--------------------7-7-7----------------------------------|
D---------2----------5-4-5----------7------6-----5----------|
A---------2-------------------------5------4-----3----------|
E-0-0-0-0-0--0-0-0-0--------0-0-0-0----0-0---0-0------------|

Gtr 1.
\ \
Gtr 2.


E-------------------------------------------------------------------------|
B-------------------------------------------------------------------------|
G-------------------------------------------------------------------------|
D---------9-9-9-9-----------------12-12-12-12-11-11-11-11-9-9-9-9-9-9-9-9-|
A-7-7-7-7---------7-7-7-7-7-7-7-7-----------------------------------------|
E-------------------------------------------------------------------------|

\ \


E------------------------------------------------------------------------|
B------------------------------------------------------------------------|
G-------------------------------------9-9-9-9-7-7-7-7-5-5-5-5-4-4-4-4----|
D---------10-10-10-10-7-7-7-7-7-7-7-7------------------------------------|
A-8-8-8-8----------------------------------------------------------------|
E------------------------------------------------------------------------| x2

4:29 x2
\ \ \ \ \ \

4:49


E------------------------------------------------------|
B-8----8-----8-----8-----------------------------------|
G-7----7-----7-----7-----------------------------------|
D-6----6-----6-----6--------2-----2-----2-----2--------|
A-7----7-----7-----7--------1-----1-----1-----1--------|
E---------------------------0-----0-----0-----0--------|

5:21
Play twice


E-------------------------------------------------|
B-------------------------------------------------|
G-------------------------------------------------|
D-8------8------8------8------8------8------------|
A---H7-7---H7-7---H7-7---H7-7---H7-7---H7-7-------|
E-------------------------------------------------|

Play X2


E-----------------------------------------|
B-----------------------------------------|
G-----------------------------------------|
D------8-----8------8-----8---8-----8-----|
A-7-7-----7----7-7-----7----7----7----7---|
E-----------------------------------------|


E-------------------------------------------------|
B-------------------------------------------------|
G-------------------------------------------------|
D-8------8------8------8------8------8------------|
A---H7-7---H7-7---H7-7---H7-7---H7-7---H7-7-------|
E-------------------------------------------------|

5:41 x4


E----------------------------------------------------------|
B----------------------------------------------------------|
G----------------------------------------------------------|
D----------------------------------------------------------|
A-6-6-6-6-6----------6-----6----------6----------6---------|
E------------9-9-9-9---7-7----5-5-5-5----3-3-3-3----3-3----|
E-----------------------------------------------------------------|
B-----------------------------------------------------------------|
G-----------------------------------------------------------------|
D-----------------------------------------------------------------|
A---------4---------4------4-----------7----------7------7--------|
E-1-1-1-1---1-1-1-1----1-1-----4-4-4-4----4-4-4-4----4-4----------|
E------------------------------------------------------------------|
B------------------------------------------------------------------|
G------------------------------------------------------------------|
D------------------------------------------------------------------|
A---------6---------6-----6------------9----------9------9---------|
E-3-3-3-3---3-3-3-3---3-3------6-6-6-6----6-6-6-6----6-6-----------|

Continue this up 3 frets, down 1 fret pattern until you end E flat.

That’s all. I know this is a long one and listening to the track will definietly be
but all the riffs are here.

Enjoy!

To play the most songs, including Hall of Scalding Vats by Buckethead by ukulele, the most important basic ukulele chords to learn are C chord, D chord, G chord, and Em chord.
These set you up to play a many of songs, and each of them is easy to master.

Leave a Reply

Your email address will not be published.