Hang Myself on You by The Candyskins Ukulele Chords

Posted on

If you are searching for Hang Myself on You ukulele chords, you’ve visit to the right place.
You can play versatile instrument Hang Myself on You using ukulele or guitar.
This song by The Candyskins can also be played by that instruments.
=

Hang Myself on You chords has rhythm and included in Sunday Morning Fever (1996) album.
You can also find other musical genres, including jazz ukulele chords, country music ukulele chords, pop ukulele chords, world music ukulele chords, and rock ukulele chords here.

Hang Myself on You by The Candyskins Ukulele Chords

e: 13 Mar 1998 15:32:33 Z
From: “Boulton, Nic”
Subject: CRD: /c/candyskins/hang_myself_on_you.crd

/c/candyskins/hang_myself_on_you.crd

From the Sunday Morning Fever album. In Eb.

We could go out its upto you
or we could sit around with nothing much to do
you cut your hair short you should’ve let it grow
I made a list of all the places we should go

Cm(III) Db(IV) Bbm(I) Eb
but its not that easy to make you believe me didnt you know


Bbm(I) Eb e-3-----4-----
its what you say and everything you do B---4---------
G-----3-------

[use an open D shape]

Ab(IV) Bbm(VI) Db(IX)
i’m gonna hang myself on you
hang myself on you

Ab(IV) C(VIII) Db(IX)
gonna hang myself on you


G --3b5------

well i’m amazed you’ve got a scar
from where you tripped and fell just like a drunken star
we fall about the stupid things we see
how come the only ones to laugh are you and me

Cm(III) Db(IV) Bbm(I)
but you’re mad you must be to still blindly trust me
didn’t you know


Bbm(I) Eb e-3-----4-----
its what you say and everything you do B---4---------
G-----3-------

;
Ab(IV) Bbm(VI) Db(IX)
i’m gonna hang myself on you
i’m gonna hang myself on you

Ab(IV) C(VIII) Db(IX)
i’m gonna hang myself on you

:


e ----------------------------------------------------------------
B ----------9-9-9--9--11--11b13-r11------------------------/13----
G -----------------------------------/6--5--6-/8----/10--8--------

bts 1 2 3 4 1 2 3 4 1 2 3 4


e ------------13---11----------------------------11--11-----------
B --11--------------------13b14r13b14r13b14r13------------11b13---
G -------13-------------------------------------------------------

bts 1 2 3 4 1 2 3 4


e -----------------------13-----13--------13-13-13---/16---15----
B --13p11---13p11----13------------------------------------------
G ---------------------------------------------------------------

bts 1 2 3 4 1 2 3 4


e ----------------------------------------------------------------
B --16-----------------16----------------------------------------
G ----------------------------------------------------------------

bts 1 2 3 4

:


Bbm(VI) Cm(VIII) Db(X) Fm Eb B---6----------
you carried ?them I carried too G--8----6--6b8-
Bbm(VI) Cm(VIII) Db(X) Fm Eb e-16-15----------13-
you want the world I want it too B-------16-16-16----

say

Bbm(I) Eb
its what you say and everything you do
its like a train running over you

[break 2 over chorus chords, end on Ab]

chords
E A D G B e
x 8 10 10 9 8 – Fm
6 8 8 8 8 x – Eb
x 3 5 5 4 3 – Cm(III)
x 4 6 6 6 4 – Db(IV)
x 1 3 3 2 1 – Bbm(I)
4 6 6 5 4 4 – Ab(IV)
6 8 8 6 6 6 – Bbm(VI)
8 10 10 9 8 8 – C(VIII)
9 11 11 10 9 9 – Db(IX)

h is a hammer on
p is a pull off
-/– is slide up
— is slide down
-b– is a bend
-r– is release a bend
–3b5– is fret at 3, pick and bend upto 5
–13b14r13b14r13– is fret at 13, (pre)bend to 14, pick &
release bend, pick and bend, pick and release, etc

have fun

Nic
Nic.Boulton@bn.cwplc.com

To play the most songs, including Hang Myself on You by The Candyskins by ukulele, the most important basic ukulele chords to learn are C chord, D chord, G chord, and Em chord.
These set you up to play a many of songs, and each of them is easy to master.

Gravatar Image
Like to play Ukulele and Sudoku Game

Leave a Reply

Your email address will not be published. Required fields are marked *