Happy Frappy by Guster Ukulele Chords

Posted on

If you are looking for Happy Frappy ukulele chords, you already visit to the best place.
You can play versatile instrument Happy Frappy using ukulele or guitar.
This song by Guster can also be played by that instruments.
=

Happy Frappy chords has rhythm and included in Parachute (1995) album.
You can also find another musical style, including jazz ukulele chords, country music ukulele chords, pop ukulele chords, world music ukulele chords, and rock ukulele chords here.

Happy Frappy by Guster Ukulele Chords

[Pre-Intro]
Guitar #1:

Guitar #2:
Strum Mutes (8 Measures)


Guitar #1:

 
(Repeat 5x) (Repeat 2x)
e||.-------12---|-------12---|----10-9-----.||-----
B||.--9h10------|--9h10------|-9--------12-.||-10~-

Guitar #1a (optional):

 
(Repeat 5x) (Repeat 2x)
e||.------------|------------|-------------.||-----
B||.------------|--7---------|-7----7~-----.||-----

Guitar #2:
Bar chords:
5 5 s/9 7

[Verse 1a]
Guitar #1:

Guitar #2:
5 5 9 7

[Verse 1b]
Guitar #1:

 
(7x) (12x) (4x)
e------10-10-m--10---12----9---
B---10-------------------------
(6x)

Guitar #2:
5 5 9 7


Guitar #1: 5th fret position
Guitar #2: Open position




Same as above

[Verse 2a]
Guitar #1:
Fills at the end of each line:

 
(12x) (4x)
e----------------------------|-------------9-10-14-12~--|---9h10-----------------|---12----9----
B----------------10-9--------|--------9-10--------------|--------9h10------------|--------------
G-----------9-11------11-9~--|---9h11-------------------|------------------------|--------------
D-----11h12------------------|--------------------------|-------------11h12------|--------------
A----------------------------|--------------------------|-------------------12~--|--------------

Guitar #2:
5 5 9 7

[Verse 2b]
Guitar #1:
Repeat 4x

 
(7x) (12x) (4x)
e------10-10-m--10---12----9---
B---10-------------------------
(6x)

5th time:

 
(7x) (7x) (16x)
e---10-9--m--9----12----
B-----------------------

Guitar #2:
Repeat 3x
5 5 9 7
4th time:
5 5 7
5 5 7


Same as above


Guitar #1:

 
Repeat 2x Repeat 4x
e------17-16-14---------------------------10-9--------|---------------------------|-------
B---------------17-15-14-12-10------10-12------12-10--|---------------------------|-------
G------------------------------9h11-------------------|---------------------------|-------
D-----------------------------------------------------|--------11h12-14-11-12-11--|-------
A-----------------------------------------------------|--12-12--------------------|--12~--

Guitar #2:
Bar chords:
5 5 s/9 7

[Verse 3a]
Guitar #1:
Rest first 3 lines,
then come in at the end of the 4th with:

 
(12x) (4x)
e----12----9----
B---------------

Guitar #2:
5 5 9 7
[Verse 3b]
(Same as above, but 6 lines instead of 4)

Guitar #1:

 
(7x) (12x) (4x)
e------10-10-m--10---12----9---
B---10-------------------------
(6x)

Guitar #2:
5 5 9 7


Same as above


Same as above


Last line of Intro, end on an A.

To play the this songs, including Happy Frappy by Guster by ukulele, the most crucial basic ukulele chords to learn are C chord, D chord, G chord, and Em chord.
These set you up to play a ton of songs, and each of them is easy to master.

Leave a Reply

Your email address will not be published.