He Will Come by Waterdeep Ukulele Chords

Posted on

If you are looking for He Will Come ukulele chords, you’ve come to the best place.
You can play versatile instrument He Will Come using ukulele or guitar.
This song by Waterdeep can also be played by that instruments.
=

He Will Come chords has rhythm and included in Everyone’s Beautiful (1999) album.
You can also find other musical style, including jazz ukulele chords, country music ukulele chords, pop ukulele chords, world music ukulele chords, and rock ukulele chords here.

He Will Come by Waterdeep Ukulele Chords


CD: Everyone’s Beautiful
c1999 Hey Ruth Music
Tabbed by Steve Cruickshank
(postlambjam@hotmail.com)

There are two guitars during the whole song but they play basically
the same thing, so its all been transcribed for one guitar here.

Intro:


e-------------------------2/4--2-----------------------
B--------------------------------4~~-------------------
G---8---x-x-x----1------------------------------------
D---9---x-x-x----2------------------------------------
A---9---x-x-x----2------------------------------------
E---7---x-x-x----0------------------------------------

Verse 1:
Soon it will be hammered into what she calls her silly head
That she really isn’t silly but she’s beautiful instead

But every time she gets a hold of something pretty it slips away
So she keeps hoping that someday soon

Chorus:
He will come, He will come
He will comfort all that’s hardened
Change the deserts into gardens
And we all will see His face
He will come, He will come
He will soften all the starkness
Break the chambers of our darkness
and we’ll all be overwhelmed

Verse 2:
She spilled her coffee in her Chevy on the way to work at 8:05
She always thought that she was clumsy and she hated it and wondered why

She can handle any tragedy that happens but not little things like this
So she keeps hoping that someday soon

(chorus)

Bridge:

For the solo, the rhythm guitar plays E7 (x797xx) and A (x776xx)


e-------------------------------------------------------------------------
B---12-------11b-11b-11b--11b128--8---8h10--10b~~~-r10--10-8---8---------
G------------------------------------9------------------------9---9~------
D-------------------------------------------------------------------------
A-------------------------------------------------------------------------
E-------------------------------------------------------------------------


e-------------------------------------------------------------------------
B---------------------------8---------------------------------------------
G---8/9--8/9--8/9--8/9--8/9----8/9--8/9--8/9~~----------------------------
D---7--------------7---------------------7-------7-7~--5-7-5--------------
A------------------------------------------------7-7---------7~-7~-7~----
E-------------------------------------------------------------------------


e-------------------------------------------------------------------------
B-------------------------------------------------------------------------
G-------------------------------------------------------------------------
D-------------------------------------------------------------------------
A-------7~---5-7-/9~----7~-7~----------------7~---------------------------
E---7-0-----------------------7-6-5--3b--0--------------------------------


e--------------------------------------------------------- ---------------
B--------------------------------------------------------- ---------------
G----------------------------------------------4---------- ---6---7---8---
D----------------------------------5~------5h7---5------- ---7---8---9---
A-------5~------7-7~--5h7-7~--5h7-----7------------------- ---7---8---9---
E---5h7-----7-5------------------------------------------- ---5---6---7---

Verse 3:
Within the world of a girl the words she hears they mean an awful lot
And the music in her mind when she gets older has the lyrics she was taught

And when she gets to heaven all the right things will be said
And He will look on her with favor

Chorus:
He will come, He will come
He’ll remove His flaming garment
Place it on the lowest harlot
And we all will see His face

He will come, He will come
All you watchmen lift your voices
Then every boy and girl rejoices
When we’ll all be overwhelmed

Outro:


e-------------------------------------------------------------------------
B---4-4-4-4-5---4-4-4-4-5-------------------------------------------------
G---2-2-2-2-2---2-2-2-2-2------4---4---4---4------------------------------
D---2-2-2-2-2---2-2-2-2-2----2---2---2---2---2--2--2--2-------------------
A---0-0-0-0-0---0-0-0-0-0----2---2---2---2---2--2--2--2-------------------
E----------------------------4---4---4---4---0--0--0--0-------------------

[A(b5)] [E/G#]

To play the most songs, including He Will Come by Waterdeep by ukulele, the most important basic ukulele chords to learn are C chord, D chord, G chord, and Em chord.
These set you up to play a a lot of songs, and each of them is easy to learn.

Leave a Reply

Your email address will not be published.