Heroin Girl by Everclear Ukulele Chords

Posted on

If you are looking for Heroin Girl ukulele chords, you already come to the right site.
You can play versatile instrument Heroin Girl using ukulele or guitar.
This song by Everclear can also be played by that instruments.
=

Heroin Girl chords has rhythm and included in Sparkle and Fade (1995) album.
You can also find another musical style, including jazz ukulele chords, country music ukulele chords, pop ukulele chords, world music ukulele chords, and rock ukulele chords here.

Heroin Girl by Everclear Ukulele Chords


Sparkle and Fade
Lyrics By Art Alexakis
Music by Everclear

Intro

Guitar 1 (with Slight Distortion)


(--------palm mute------------)
e|-----------------------------------------|
B|-----------------------------------------|
G|-----------------------------------------|
D|--12///-5-5-5-5-5-5-5-5-5-5-5-5-5-5-5-5--|
A|--12///-5-5-5-5-5-5-5-5-5-5-5-5-5-5-5-5--|
E|--10///-3-3-3-3-3-3-3-3-3-3-3-3-3-3-3-3--|
D (-------------G---------------)

I used to know a girl___

Guitar 2 (with slight distortion)


(---palm mute---)
e|---------------------------------------|
B|---------------------------------------|
G|----------------10///-4-4-4-4-4-4-4-4--|
D|----------------11///-5-5-5-5-5-5-5-5--|
A|----------------12///------------------|
E|---------------------------------------|

Guitars 1 & 2 (with slight distortion)


e|--2--------0---------------2--------0-----------|
B|-----2--------0-----0 h 2-----2-----------------|
G|-----------------3---------------------4-4-4-3--|
D|--------4------------------------4-----5-5-5-4--|
A|---------------------------------------5-5-5-4--|
E|---------------------------------------3-3-3-2--|

she had two pierced nipples and a b[(-G-)]lack tattoo___


e|--2--------0---------------2--------0-----------|
B|-----2--------0-----0 h 2-----2-----------------|
G|-----------------3---------------------4-4-4-3--|
D|--------4------------------------4-----5-5-5-4--|
A|---------------------------------------5-5-5-4--|
E|---------------------------------------3-3-3-2--|

too___[(-G-)]


e|--2--------0---------------2--------0-----------|
B|-----2--------0-----0 h 2-----2-----------------|
G|-----------------3---------------------4-4-4-3--|
D|--------4------------------------4-----5-5-5-4--|
A|---------------------------------------5-5-5-4--|
E|---------------------------------------3-3-3-2--|

[(-G-)]


e|--2--------0---------------2--------0-----------|
B|-----2--------0-----0 h 2-----2-----------------|
G|-----------------3---------------------4-4-4-3--|
D|--------4------------------------4-----5-5-5-4--|
A|---------------------------------------5-5-5-4--|
E|---------------------------------------3-3-3-2--|

We’d drink that mexican beer___ We’d li[(-G-)]ve on mexican food___


e|--2--------0---------------2--------0--|
B|-----2--------0-----0 h 2-----2--------|
G|-----------------3---------------------|
D|--------4------------------------4-----|
A|---------------------------------------|
E|---------------------------------------|

yeah___ I wish I could

Main Verse

Guitars 1 & 2 (with Heavy Distortion)


e|-------------------------------------|
B|-------------------------------------|
G|------------7-7-----6-6-----7-7------|
D|--5-5-5-5-4-7-7-7-7-6-6-4-4-7-7-7-7--|
A|--5-5-5-5-4-5-5-7-7-4-4-4-4-5-5-7-7--|
E|--3-3-3-3-2-----5-5-----2-2-----5-5--|

go back (back, back, back) yes, back in time


e|-------------------------------|
B|-------------------------------|
G|------7-7-----6-6-----7-7------|
D|--5-4-7-7-7-7-6-6-4-4-7-7-7-7--|
A|--5-4-5-5-7-7-4-4-4-4-5-5-7-7--|
E|--3-2-----5-5-----2-2-----5-5--|


e|-------------------------------|
B|-------------------------------|
G|------7-7-----6-6-----7-7------|
D|--5-4-7-7-7-7-6-6-4-4-7-7-7-7--|
A|--5-4-5-5-7-7-4-4-4-4-5-5-7-7--|
E|--3-2-----5-5-----2-2-----5-5--|

esther used to be the kinda girl that you would never leave___


e|-------------------------------|
B|-------------------------------|
G|------7-7-----6-6-----7-7------|
D|--5-4-7-7-7-7-6-6-4-4-7-7-7-7--|
A|--5-4-5-5-7-7-4-4-4-4-5-5-7-7--|
E|--3-2-----5-5-----2-2-----5-5--|

yeah____


e|-------------------------------|
B|-------------------------------|
G|------7-7-----6-6-----7-7------|
D|--5-4-7-7-7-7-6-6-4-4-7-7-7-7--|
A|--5-4-5-5-7-7-4-4-4-4-5-5-7-7--|
E|--3-2-----5-5-----2-2-----5-5--|

she’d do anything to give me what i need for my disease


e|-------------------------------------|
B|-------------------------------------|
G|------7-7-----6-6-----7-7------------|
D|--5-4-7-7-7-7-6-6-4-4-7-7-7-7-7-7-7--|
A|--5-4-5-5-7-7-4-4-4-4-5-5-7-7-7-7-7--|
E|--3-2-----5-5-----2-2-----5-5-5-5-5--|

she would do anything

Chorus (Guitars 1 & 2)


e|-----------------------------------|
B|-----------------------------------|
G|-----------------------------------|
D|--7-7-7-7-7-7-7-7-9-9-9-9-9-9-9-9--|
A|--7-7-7-7-7-7-7-7-9-9-9-9-9-9-9-9--|
E|--5-5-5-5-5-5-5-5-7-7-7-7-7-7-7-7--|
(------A------) (------B------)

I can hear them talking in the real world

Main Verse (Guitars 1 & 2)


e|-------------------------------|
B|-------------------------------|
G|------7-7-----6-6-----7-7------|
D|--5-4-7-7-7-7-6-6-4-4-7-7-7-7--|
A|--5-4-5-5-7-7-4-4-4-4-5-5-7-7--|
E|--3-2-----5-5-----2-2-----5-5--|

yeah, but they don’t understand

Chorus (Guitars 1 & 2)


e|-----------------------------------|
B|-----------------------------------|
G|-----------------------------------|
D|--7-7-7-7-7-7-7-7-9-9-9-9-9-9-9-9--|
A|--7-7-7-7-7-7-7-7-9-9-9-9-9-9-9-9--|
E|--5-5-5-5-5-5-5-5-7-7-7-7-7-7-7-7--|
(------A------) (------B------)

that I’m happy in hell with my heroin girl

Main Verse (Guitars 1 & 2)


e|-------------------------------|
B|-------------------------------|
G|------7-7-----6-6-----7-7------|
D|--5-4-7-7-7-7-6-6-4-4-7-7-7-7--|
A|--5-4-5-5-7-7-4-4-4-4-5-5-7-7--|
E|--3-2-----5-5-----2-2-----5-5--|

yeah with the heroin girl___


e|-------------------------------|
B|-------------------------------|
G|------7-7-----6-6-----7-7------|
D|--5-4-7-7-7-7-6-6-4-4-7-7-7-7--|
A|--5-4-5-5-7-7-4-4-4-4-5-5-7-7--|
E|--3-2-----5-5-----2-2-----5-5--|


Guitar 1 (Note, stum down once)
e|–12 fb rrrrrrrrrrrrrrrrrrrrrrrrrrrrrrr|


B|---------------------------------------|

G|–9 fb rrrrrrrrrrrrrrrrrrrrrrrrrrrrrrrr|


D|---------------------------------------|
A|---------------------------------------|
E|---------------------------------------|

esther used to be the kinda lover you would never leave, yeah, ahh

Guitar 2


e|-------------------------------|
B|-------------------------------|
G|------7-7-----6-6-----7-7------|
D|--5-4-7-7-7-7-6-6-4-4-7-7-7-7--|
A|--5-4-5-5-7-7-4-4-4-4-5-5-7-7--|
E|--3-2-----5-5-----2-2-----5-5--|


Guitar 1 (Note, strum up once)
e|–12 fb rrrrrrrrrrrrrrrrrrrrrrrrrrrrrrr|


B|---------------------------------------|

G|–9 fb rrrrrrrrrrrrrrrrrrrrrrrrrrrrrrrr|


D|---------------------------------------|
A|---------------------------------------|
E|---------------------------------------|

she’d do anything to give me what I need for my disease

Guitar 2


e|-------------------------------|
B|-------------------------------|
G|------7-7-----6-6-----7-7------|
D|--5-4-7-7-7-7-6-6-4-4-7-7-7-7--|
A|--5-4-5-5-7-7-4-4-4-4-5-5-7-7--|
E|--3-2-----5-5-----2-2-----5-5--|


Guitars 1 & 2


e|------------------------------|
B|------------------------------|
G|------------------------------|
D|---4-4-4-4-4-4-4--------------|
A|---4-4-4-4-4-4-4--------------|
E|---2-2-2-2-2-2-2--------------|
(-----F#----)

she’d do anything

Chorus (Guitars 1 & 2)


e|-----------------------------------|
B|-----------------------------------|
G|-----------------------------------|
D|--7-7-7-7-7-7-7-7-9-9-9-9-9-9-9-9--|
A|--7-7-7-7-7-7-7-7-9-9-9-9-9-9-9-9--|
E|--5-5-5-5-5-5-5-5-7-7-7-7-7-7-7-7--|
(------A------) (------B------)

I can hear them talking in the real world

Main Verse (Guitars 1 & 2)


e|-------------------------------|
B|-------------------------------|
G|------7-7-----6-6-----7-7------|
D|--5-4-7-7-7-7-6-6-4-4-7-7-7-7--|
A|--5-4-5-5-7-7-4-4-4-4-5-5-7-7--|
E|--3-2-----5-5-----2-2-----5-5--|

yeah, but they don’t understand

Chorus (Guitars 1 & 2)


e|-----------------------------------|
B|-----------------------------------|
G|-----------------------------------|
D|--7-7-7-7-7-7-7-7-9-9-9-9-9-9-9-9--|
A|--7-7-7-7-7-7-7-7-9-9-9-9-9-9-9-9--|
E|--5-5-5-5-5-5-5-5-7-7-7-7-7-7-7-7--|
(------A------) (------B------)

that I’m losing my self in a white trash

Guitar 1


e|-----------------------|
B|-----------------------|
G|--9-9-9-9-9-9-9-8 ///--|
D|-----------------------|
A|-----------------------|
E|-----------------------|

hell___________

Guitar 2


e|---------|
B|---------|
G|---------|

D|–4 rrr–|
A|–4 rrr–|
E|–2 rrr–|

Main Verse (Guitars 1 & 2)


e|-------------------------------|
B|-------------------------------|
G|------7-7-----6-6-----7-7------|
D|--5-4-7-7-7-7-6-6-4-4-7-7-7-7--|
A|--5-4-5-5-7-7-4-4-4-4-5-5-7-7--|
E|--3-2-----5-5-----2-2-----5-5--|

lost inside a heroin girl___


e|-------------------------------|
B|-------------------------------|
G|------7-7-----6-6-----7-7------|
D|--5-4-7-7-7-7-6-6-4-4-7-7-7-7--|
A|--5-4-5-5-7-7-4-4-4-4-5-5-7-7--|
E|--3-2-----5-5-----2-2-----5-5--|

yeah with a heroin girl


e|-------------------------------|
B|-------------------------------|
G|------7-7-----6-6-----7-7------|
D|--5-4-7-7-7-7-6-6-4-4-7-7-7-7--|
A|--5-4-5-5-7-7-4-4-4-4-5-5-7-7--|
E|--3-2-----5-5-----2-2-----5-5--|

yeah, yeah, yeah, yeah, yeah,

Interlude (guitars 1 & 2)


e|-------------------------------------|
B|-------------------------------------|
G|-------------------------------------|
D|--5-4-4-2-2-4-4------4-4-2-2-4-4-----|
A|--5-4-4-2-2-4-4------4-4-2-2-4-4-----|
E|--3-2-2-0-0-2-2------2-2-0-0-2-2-----|


e|---------------------------------|
B|---------------------------------|
G|------7-7------------------------|
D|--7-7-7-7-7-7------9-9-8-8-7-7---|
A|--7-7-5-5-7-7------9-9-8-8-7-7---|
E|--5-5-----5-5------7-7-6-6-5-5---|

Go !

Guitar 1


e|--2--------0---------------2--------0--------|
B|-----2--------0-----0 h 2-----2--------0-----|
G|-----------------3------------------------3--|
D|--------4------------------------4-----------|
A|---------------------------------------------|
E|---------------------------------------------|

Guitar 2


e|-------------------------------------|
B|-------------------------------------|
G|-------------------------------------|
D|--5-4-4-2-2-4-4------4-4-2-2-4-4-----|
A|--5-4-4-2-2-4-4------4-4-2-2-4-4-----|
E|--3-2-2-0-0-2-2------2-2-0-0-2-2-----|


Guitar 1


e|--2--------0---------------2--------0--------|
B|-----2--------0-----0 h 2-----2--------0-----|
G|-----------------3------------------------3--|
D|--------4------------------------4-----------|
A|---------------------------------------------|
E|---------------------------------------------|

Guitar 2


e|---------------------------------|
B|---------------------------------|
G|------7-7------------------------|
D|--7-7-7-7-7-7------9-9-8-8-7-7---|
A|--7-7-5-5-7-7------9-9-8-8-7-7---|
E|--5-5-----5-5------7-7-6-6-5-5---|


Guitar 1


e|--2--------0---------------2--------0--------|
B|-----2--------0-----0 h 2-----2--------0-----|
G|-----------------3------------------------3--|
D|--------4------------------------4-----------|
A|---------------------------------------------|
E|---------------------------------------------|

they found her out in the field, about a mile from home___

Guitar 2


e|-------------------------------------|
B|-------------------------------------|
G|-------------------------------------|
D|--5-4-4-2-2-4-4------4-4-2-2-4-4-----|
A|--5-4-4-2-2-4-4------4-4-2-2-4-4-----|
E|--3-2-2-0-0-2-2------2-2-0-0-2-2-----|


Guitar 1


e|--2--------0---------------2--------0--------|
B|-----2--------0-----0 h 2-----2--------0-----|
G|-----------------3------------------------3--|
D|--------4------------------------4-----------|
A|---------------------------------------------|
E|---------------------------------------------|

Guitar 2


e|---------------------------------|
B|---------------------------------|
G|------7-7------------------------|
D|--7-7-7-7-7-7------9-9-8-8-7-7---|
A|--7-7-5-5-7-7------9-9-8-8-7-7---|
E|--5-5-----5-5------7-7-6-6-5-5---|


Guitar 1


e|--2--------0---------------2--------0--------|
B|-----2--------0-----0 h 2-----2--------0-----|
G|-----------------3------------------------3--|
D|--------4------------------------4-----------|
A|---------------------------------------------|
E|---------------------------------------------|

her face was warm from the sun, but her body was cold___

Guitar 2


e|-------------------------------------|
B|-------------------------------------|
G|-------------------------------------|
D|--5-4-4-2-2-4-4------4-4-2-2-4-4-----|
A|--5-4-4-2-2-4-4------4-4-2-2-4-4-----|
E|--3-2-2-0-0-2-2------2-2-0-0-2-2-----|


Guitar 1


e|--2--------0---------------2--------0--------|
B|-----2--------0-----0 h 2-----2--------0-----|
G|-----------------3------------------------3--|
D|--------4------------------------4-----------|
A|---------------------------------------------|
E|---------------------------------------------|

Guitar 2


e|---------------------------------|
B|---------------------------------|
G|------7-7------------------------|
D|--7-7-7-7-7-7------9-9-8-8-7-7---|
A|--7-7-5-5-7-7------9-9-8-8-7-7---|
E|--5-5-----5-5------7-7-6-6-5-5---|


Interlude (guitars 1 & 2)


e|-------------------------------------|
B|-------------------------------------|
G|-------------------------------------|
D|--5-4-4-2-2-4-4------4-4-2-2-4-4-----|
A|--5-4-4-2-2-4-4------4-4-2-2-4-4-----|
E|--3-2-2-0-0-2-2------2-2-0-0-2-2-----|

I heard a police man say “just another


e|------------------------------------|
B|------------------------------------|
G|------7-7---------------------------|
D|--7-7-7-7-7-7------9-9-8-8-7-7-2-2--|
A|--7-7-5-5-7-7------9-9-8-8-7-7-2-2--|
E|--5-5-----5-5------7-7-6-6-5-5-0-0--|

overdose”, just another overdose !

Solo
Guitar 1


e|----------------------------------------------------------
B|--14-14-14-14-14-14-14-1412-12---------14-14-14-14-14/--|
G|--14-14-14-14-14-14-14-1412-1211-11-11-11/14-14-14-14-14/--|
D|----------------------------------------------------------
A|----------------------------------------------------------
E|----------------------------------------------------------

Guitar 2


e|-------------------------------|
B|-------------------------------|
G|------7-7-----6-6-----7-7------|
D|--5-4-7-7-7-7-6-6-4-4-7-7-7-7--|
A|--5-4-5-5-7-7-4-4-4-4-5-5-7-7--|
E|--3-2-----5-5-----2-2-----5-5--|


Guitar 1


e|---------------------------------------------------------|
B|--11-11-119-9-9-9-9-9-9-9-9-9/14-14-14-14-14-14-14-14/--|
G|--11-11-119-9-9-9-9-9-9-9-9-9/14-14-14-14-14-14-14-14/--|
D|---------------------------------------------------------|
A|---------------------------------------------------------|
E|---------------------------------------------------------|

Guitar 2


e|-------------------------------|
B|-------------------------------|
G|------7-7-----6-6-----7-7------|
D|--5-4-7-7-7-7-6-6-4-4-7-7-7-7--|
A|--5-4-5-5-7-7-4-4-4-4-5-5-7-7--|
E|--3-2-----5-5-----2-2-----5-5--|


Guitar 1


e|--------------------------------------14-----------|
B|--17-17b-17-17b-17b-14-13-12-------14----17-17-17--|
G|--16-16b-16-16b-16b-14-13-12-13h15-----------------|
D|---------------------------------------------------|
A|---------------------------------------------------|
E|---------------------------------------------------|

Guitar 2


e|-------------------------------|
B|-------------------------------|
G|------7-7-----6-6-----7-7------|
D|--5-4-7-7-7-7-6-6-4-4-7-7-7-7--|
A|--5-4-5-5-7-7-4-4-4-4-5-5-7-7--|
E|--3-2-----5-5-----2-2-----5-5--|


Guitar 1


e|--14-14-14-14-17-17-17-17-17--|
B|--16-16-16-16-16-16-16-16-16--|
G|------------------------------|
D|------------------------------|
A|------------------------------|
E|------------------------------|

Guitar 2


e|-------------------------------|
B|-------------------------------|
G|------7-7-----6-6-----7-7------|
D|--5-4-7-7-7-7-6-6-4-4-7-7-7-7--|
A|--5-4-5-5-7-7-4-4-4-4-5-5-7-7--|
E|--3-2-----5-5-----2-2-----5-5--|


Outro (Guitars 1 & 2)


e|-------------------------------|
B|-------------------------------|
G|------7-7-----6-6-----7-7------|
D|--5-4-7-7-7-7-6-6-4-4-7-7-7-7--|
A|--5-4-5-5-7-7-4-4-4-4-5-5-7-7--|
E|--3-2-----5-5-----2-2-----5-5--|

Esther used to be the kinda lover you would never leave, yeah, ahh


e|-------------------------------|
B|-------------------------------|
G|------7-7-----6-6-----7-7------|
D|--5-4-7-7-7-7-6-6-4-4-7-7-7-7--|
A|--5-4-5-5-7-7-4-4-4-4-5-5-7-7--|
E|--3-2-----5-5-----2-2-----5-5--|

she’d do anything to give me what I need for my disease


e|-------------------------------------|
B|-------------------------------------|
G|------7-7-----6-6-----7-7------------|
D|--5-4-7-7-7-7-6-6-4-4-7-7-7-7-5-4-4--|
A|--5-4-5-5-7-7-4-4-4-4-5-5-7-7-5-4-4--|
E|--3-2-----5-5-----2-2-----5-5-3-2-2--|

she would do anything

To play the this songs, including Heroin Girl by Everclear by ukulele, the most crucial basic ukulele chords to learn are C chord, D chord, G chord, and Em chord.
These set you up to play a many of songs, and each of them is easy to master.

Leave a Reply

Your email address will not be published.