Hold On by Santana Ukulele Chords

Posted on

If you are searching for Hold On ukulele chords, you already come to the right place.
You can play versatile instrument Hold On using ukulele or guitar.
This song by Santana can also be played by that instruments.
=

Hold On chords has rhythm and included in Shangó (1982) album.
You can also get another musical style, including jazz ukulele chords, country music ukulele chords, pop ukulele chords, world music ukulele chords, and rock ukulele chords here.

Hold On by Santana Ukulele Chords

From the album: Shango-1982
Tabbed by Ray Scheidler

Intro:


E------------------------------------------------
B---(3)---3---3-----(3)---3---3-----(3)---3---3--
G---(3)---3---3-----(3)---3---3-----(3)---3---3--
D---(5)---5---5-----(5)---5---5-----(5)---5---5--
A------------------------------------------------
E------------------------------------------------


E------------------------------------------------
B-----1------4------3------1---------------------
G-----2------2------2------2------3--------------
D-----2------2------4------4------5--------------
A---------------------------------5--------------
E------------------------------------------------


E------------------------------------------------
B--3-------3------3-----3-------3----3-1---------
G--5-------5------2-----2-------2----3-3-3-------
D--5-------5------3-----3-------3----5-5-5-------
A------------------------------------------------
E------------------------------------------------


E------------------------------------------------
B--3---1---------1------4-----3--1---------------
G--3---3-----3---2------2-----2--2------3--------
D--5---5-----5---2------2-----4--4------5--------
A---------------------------------------5--------
E------------------------------------------------


E------------------------------------------------
B---3----3------3---3------3-------3---3--1------
G---3----3------3---2------2-------2---3--3--3---
D---5----5------5---3------3-------3---5--5--5---
A------------------------------------------------
E------------------------------------------------


E--------------------------------------3-3-------
B--3--1-----1---4--3---1--------3---3--3-1-------
G--3--2-----2---2--2---2---3----3---3--3-2-------
D--5--2-----2---2--4---4---5----5---5------------
A------------------------------------------------
E------------------------------------------------


E--------------------3--1------------------------
B-------------3-3----3--3---3---1------1--3-3----
G--3---3--3---3-3----3--3------------3------2----
D-------------------------------------------4----
A------------------------------------------------
E------------------------------------------------
E------------------------------------------------
B-------1---3----3-----3--3------3--3-3-1--------
G--3--------3----3-----3--2------2--2-3-3-3------
D-----------5----5-----5--3------3--3-5-5-5------
A------------------------------------------------
E------------------------------------------------


E------------------------------------------------
B-----3---1-----4-----3------1-------------------
G-----5---2-----2-----2------2-----3--3----------
D-----5---2-----2-----4------4-----5--5----------
A------------------------------------------------
E------------------------------------------------
E------------------------------------------------
B---3----3----3-------3----3---3----3--3-1-------
G---3----3----3-------2----2---2----2--3-3-3-----
D---5----5----5-------3----3---3----3--5-5-5-----
A------------------------------------------------
E------------------------------------------------
E------------------------------------------------
B---3----1---1----4-----3------1-------3---------
G---3----2---2----2-----2------2---3---3---------
D---5----2---2----2-----4------4---5---5---------
A------------------------------------------------
E------------------------------------------------
E------3----3---3--------------------------------
B---3--3----1---1--------------------3---3-3-----
G---3--3----2---2------3------3------3---3-3-----
D---5-------------------------5------5---5-5-----
A------------------------------------------------
E------------------------------------------------

( Tab from: http://www.guitartabs.cc/tabs/s/santana/hold_on_tab.html )


E---3------1-------------------------------------
B---3------3-3-1------------1------3-3-----------
G---3------3-----------3-------------2-----------
D------------------------------------4-----------
A------------------------------------------------
E------------------------------------------------

(Chorus)


E--3----3-----------3--3---------3----1----------
B-------4-----------4--4---------4----1----------
G-------3-----3-----3--3---------3----2----------
D------------------------------------------------
A------------------------------------------------
E------------------------------------------------

Hold on_____________


E--1-----1----2--2---5------5-----3----1---------
B--1-----1----3--3---7------7-----3----3---------
G--2-----2----2--2---7------7-----3----3---------
D------------------------------------------------
A------------------------------------------------
E------------------------------------------------


E--3----3---3----3--3-----1----------------------
B--4----4---4----4--4-----3--3-------1---3-------
G--3----3---3----3--3-----3--3---3-------2-------
D----------------------------------------4-------
A------------------------------------------------
E-----------------------------------------------


E--3---3--3-----------3-----3----3--1--1---------
B---------4-----------4-----4----4--1--1---------
G---------3----3------3-----3----3--2--2---------
D------------------------------------------------
A------------------------------------------------
E------------------------------------------------


E--1----2-----2------5-----5--6------------------
B--1----3-----3------7-----7--8--8--8------------
G--2----2-----2------7-----7--7--7--7------------
D------------------------------------------------
A------------------------------------------------
E------------------------------------------------


E---3--3--3---3--3---1---------------------------
B---4--4--4---4--4---3-----3-----1---3----3------
G---3--3--3---3--3---3-----3---3----------2------
D-----------------------------------------4------
A------------------------------------------------
E------------------------------------------------


E------------------------------------------------
B---1--1--1-------3--1---------------------------
G---2--2--2-------2--2-------3-------------------
D---4--4--4-------4--4-------5-5-----------------
A----------------------------5-5-----------------
E------------------------------------------------

Lead over intro x 4


E------------------------------------------------
B---3---3--3---3----3-----3----3-3-1-------------
G---3---3--3---3----2-----2----2-3-3-3-----------
D---5---5--5---5----3-----3----3-5-5-5-----------
A------------------------------------------------
E------------------------------------------------


E------------------------------------------------
B--1---4--3----1----------3-----3--3--3----------
G--2---2--2----2--3-------3-----3--3--2----------
D--2---2--4----4--5-------5-----5--5--3----------
A------------------------------------------------
E------------------------------------------------


E------------------------------------------------
B---3-----3-3---3-1----3--1-----1---4--3---1-----
G---2-----2-2---3-3-3--3--2-----2---2--2---2-----
D---3-----3-3---5-5-5--3--2-----2---2--4---4-----
A------------------------------------------------
E------------------------------------------------


E---------------3-----3--3-----------------------
B------3---3----3-----1--1--------------------3--
G--3---3---3----3-----2--2------3------3---------
D--5---5---5-------------------------------------
A------------------------------------------------
E------------------------------------------------


E-------------1----------------------------------
B--3-----3----3-3-1----------1-----3--3----------
G--3----------3---------3-------------2----------
D-------------------------------------4----------
A------------------------------------------------
E------------------------------------------------

(Chorus)

(Lead over intro)

(Chorus over outro lead)

To play the most songs, including Hold On by Santana by ukulele, the most important basic ukulele chords to learn are C chord, D chord, G chord, and Em chord.
These set you up to play a a lot of songs, and each of them is easy to learn.

Gravatar Image
Like to play Ukulele and Sudoku Game

Leave a Reply

Your email address will not be published. Required fields are marked *