Hold On by Ukulele Chords

Posted on

If you are looking for Hold On ukulele chords, you’ve come to the best site.
You can play versatile instrument Hold On using ukulele or guitar.
This song by can also be played by that instruments.
=

Hold On chords has rhythm and included in Troubadour (1976) album.
You can also find other musical genres, including jazz ukulele chords, country music ukulele chords, pop ukulele chords, world music ukulele chords, and rock ukulele chords here.

Hold On by Ukulele Chords

(Troubadour)

First time I seen you,[/][/][/][/][/][/]

[/] [/] [/] [/] [/][/]
I knew You had come un-done for some-one
mistreated you

The ringing in your ears,[/][/][/][/][/][/]
[/] [/] [/] [/][/]
the salt in your tears [/] [/] [/] Yes, I know I would feel sick at a
deal, yes I do


[/] Some bright morning, the sun will shine again

[/]Some bri[/]ght morning, start all over again

Hold on, you’ve got to hold on[/][/][/][/][/][/]

If nothing is real, I know how it feels, yes I do

Pedal steel solo


|----------------------------------------------------------10/12—12-15-13-12----|
|----------------------5-8-6-5-5-5---5—5h6p53/5—6-6----------------------------|
|---------7-5--------7-------------7-----------------7/9------------------------|
|-----5-7--------6-7------------------------------------------------------------|
|--/7---------------------------------------------------------------------------|
|-------------------------------------------------------------------------------|
|-------------------------------------------------------------------------------|
|---13/15-13--------------------------------------------------------------------|
|-------------14/16---12--10--9-------------------------------------------------|
|-------------------------------------------------------------------------------|
|-------------------------------------------------------------------------------|
|-------------------------------------------------------------------------------|

Guitar solo


01:25


|-------------------------------------------------------------------------------|
|---7-8-10~---8-7-------------------6-5------------5---5-6-8-6----6-6--8--------|
|-----------------7---7-8--7-9--7-------5--5-4—5-7---7-------------7-----7-5-3--|
|-------------------9----------------------------------------------------------5|
|-------------------------------------------------------------------------------|
|-------------------------------------------------------------------------------|

01:44


|-------------------------------------8-8-10------------------------------------|
|--6-5--5-6-5-------------------5-------------10-10-----------------------------|
|--------------7--5-5-4---------5-----------------------------------------------|
|-------------------------------7-----------------------------------------------|
|-------------------------------------------------------------------------------|
|-------------------------------------------------------------------------------|

Hold on, when everything is gone

I know how it feels to get a dirty deal, I do

To play the this songs, including Hold On by by ukulele, the most crucial basic ukulele chords to learn are C chord, D chord, G chord, and Em chord.
These set you up to play a many of songs, and each of them is easy to learn.

Gravatar Image
Like to play Ukulele and Sudoku Game

Leave a Reply

Your email address will not be published. Required fields are marked *