Holdin On by Saliva Ukulele Chords

Posted on

If you are searching for Holdin On ukulele chords, you have visit to the best site.
You can play versatile instrument Holdin On using ukulele or guitar.
This song by Saliva can also be played by that instruments.
=

Holdin On chords has rhythm and included in Back Into Your System (2002) album.
You can also get other musical genres, including jazz ukulele chords, country music ukulele chords, pop ukulele chords, world music ukulele chords, and rock ukulele chords here.

Holdin On by Saliva Ukulele Chords

Saliva – Holdin’ on
Album: Back Into Your System

bass tab

by : doky 2007
taquilleros_de_sudamerica_maroyu_el_grupo_tropical_del_momento@hotmail.com

5-stringed bass

INTRO


G-|--------------|-----------------|
D-|--------------|-----------------|
A-|--------------|-----------------|
E-|-99---7---4---|-----------------|
B-|----7---5---2-|-22-2/5-555h7777-|

A

VERSO


G-|-----|
D-|-----|
A-|-----|
E-|-----|
B-|-----|

A

PRE-CORO


G-|----------------------|
D-|----------------------|
A-|----------------------|

E-|-444444-000000-222222-|


B-|----------------------|

CORO


G-|-------------------------------------------------------|
D-|-----------9h11-------------7h9------------------------|
A-|------11--------11------9-------9----------------------|
E-|-9999----9---------7777---7--------------5555---7777---|
B-|----------------------------------7777-----------------|

MIDDLE


G-|----------|------|
D-|----------|------|
A-|----------|------|
E-|----------|-0----|
B-|-2---22---|------|

FIN


G-|-------------|
D-|-------------|
A-|-------------|
E-|-------------|
B-|-22----25----|

Le mando congratulaciones abrasivas Al Jose Castro del QB 2004 que bien tara,
tiene su guitarra electrica e ibamos a tocar con El Chuper musica bien regio
pero no pudo porque no tenia time, estaba trabajando en una licoreria de
la buenos aires.

doky2007

To play the this songs, including Holdin On by Saliva by ukulele, the most important basic ukulele chords to learn are C chord, D chord, G chord, and Em chord.
These set you up to play a ton of songs, and each of them is easy to learn.

Leave a Reply

Your email address will not be published.