I Can’t Stand It Anymore by Union 13 Ukulele Chords

Posted on

If you are searching for I Can’t Stand It Anymore ukulele chords, you already visit to the right site.
You can play versatile instrument I Can’t Stand It Anymore using ukulele or guitar.
This song by Union 13 can also be played by that instruments.
=

I Can’t Stand It Anymore chords has rhythm and included in East Los Presents… (1997) album.
You can also find another musical genres, including jazz ukulele chords, country music ukulele chords, pop ukulele chords, world music ukulele chords, and rock ukulele chords here.

I Can’t Stand It Anymore by Union 13 Ukulele Chords

“I can’t Stand it anymore” By Union 13
Transcribed by Chris Mendez (blackout@gte.net)

Intro

[(A)] [(C#)]


e----------------------------------------------9-------:
b-------------------5----------6-----6-----6-----6-----:
g---------6-----6-----6----------6-----6-----6-----6---:
d-----7-9---7-9---7-----7----6-----6-----6-------------:
a---7----------------------4---------------------------:
e-5----------------------------------------------------:

[(D)] [(F#m)] [(E)]


e------------------------------x-----------------------:
b-----7-----7-----10-------10--x----7-5---5-7(bend)----:
g-----7---7-------11----11-----9--6-----6-----------6-4:
d-----7-7---------11-11--------9-----------------------:
a-5-5---------9-9--------------7-----------------------:
e------------------------------x-----------------------:

[(A)] [(C#)] [(B)] [(A)]


e-------------------5----------x---x-----x---x--5------:
b-----5-------5-------5--------6---6-----4---4--5------:
g-------7---7---7-------6------6---6-----4---4--6------:
d---7-----7-------7------------6---6-----4---4--7------:
a--------------------------4-4-4-4-4-2-2-2-2-2--7------:
e-5----------------------------x---x-----x---x--5------:

[(A)]In our youth, a simple life, f[(C#)]illed with things we [(B)]love

[(A)]Then and now we see and r[(C#)]ealize the conflicts that [(B)]confront

[(A)]us. [(D)]As we[(C#)] grow[(B)] [(D)] [(C#)] [(D)] I [(A)]see the walls are closing in

[(C#)]Then I see those [(B)]who control [(D)] I C[(C#)]an’t [(B)]Stand it

[(D)]I ca[(C#)]n’t s[(B)]tand it anymo[(A)]re…. I CAN’T STAND IT ANYMORE!!!

[(A)]He was like a shadow a theif in the night [(C#)]he took away the only

thing I wanted [(B)]in my life! I[(A)]t’s kinda’ my fault for not letting

her [(C#)]know the feelin[(B)]gs that I have i[(A)]nside (and I) [(D)]I can’t [(C#)]stand

[(B)]it ! I [(D)]can’t st[(C#)]and it a[(B)]nymor[(A)]e! I [(C#)]can’t stan[(B)]d it anymore!

[(A)]Three days and weeks pass me[(C#)] by but my feel[(B)]ings for you never

diminish or die! [(D)]You called [(C#)]me a greedy[(B)] and selfish guy! It

didn’t matter to me because I had you by my side!

(During solo, play A, B, C#, D, F#, E)

I c[(A)]an’t stand it anymore! I c[(C#)]an’t stand it anymore!

I h[(D)]ad my chance but[(F#)] why am I still think[(E)]ing of you?!

No more, I can’t stand this shit anymore!

To play the most songs, including I Can’t Stand It Anymore by Union 13 by ukulele, the most crucial basic ukulele chords to learn are C chord, D chord, G chord, and Em chord.
These set you up to play a many of songs, and each of them is easy to master.

Leave a Reply

Your email address will not be published.