I Don’t Want to Go to School by The Naked Brothers Band Ukulele Chords

Posted on

If you are looking for I Don’t Want to Go to School ukulele chords, you have visit to the right place.
You can play versatile instrument I Don’t Want to Go to School using ukulele or guitar.
This song by The Naked Brothers Band can also be played by that instruments.
=

I Don’t Want to Go to School chords has rhythm and included in I Don’t Want to Go to School (2008) album.
You can also get other musical style, including jazz ukulele chords, country music ukulele chords, pop ukulele chords, world music ukulele chords, and rock ukulele chords here.

I Don’t Want to Go to School by The Naked Brothers Band Ukulele Chords


Written by Nat Wolff

Intro: This is the bass line for the chorus.


e|--------------------------------------|
B|--------------------------------------|
G|--------------------------------------|
D|---------0--2--0--3--2--0--2--0-------|
A|----1h2--------------------------1--2-|
E|-3------------------------------------|


e|-----------------------|
B|-----------------------|
G|---------0--2--3--2--0-|
D|----1h2----------------|
A|-3---------------------|
E|-----------------------|


This is the guitar lick for the chorus.


e|--------------------------------------|
B|---------3--5--3--6--5--3--5--3-------|
G|----3h4--------------------------3--4-|
D|-5------------------------------------|
A|--------------------------------------|
E|--------------------------------------|


e|---------3--5--6--5--3-|
B|----4h5----------------|
G|-5---------------------|
D|-----------------------|
A|-----------------------|
E|-----------------------|


I don’t want to go to school, Yes it’s true.
I don’t want to see a teacher’s face again.
I don’t want to go to school every morning.

I don’t want to go to school.

School, school, school, I don’t want to go to school.
School, school, school, I don’t want to go to school.
School, school, school, I don’t want to go to school.

Don’t want to go to school and that’s for sure.
Don’t take me in the morning or I’ll cry some more.
And I am really tired of being treated like a fool.

I don’t want to go to school.

You can’t deny me of my,
You can’t deny me of my,
You can’t deny me of my freedom.
You can’t deny me of my,
You can’t deny me of my,
You can’t deny me of my summer.
I don’t want to go to school.

(no chords only drum beat)
And you give us so much work I go crazy.

Try to rest my head and you call me lazy.
I look around and all I see is depression.
And I’ll tell you teachers I’ve got a confession.
All us kids want to do is have some fun.
But the work, the work, the work is never done.
You always tell me to stop, to stop clowning around.
Can’t even make, make, make, make, no sound.
Make, make, no sound, I can’t make no sound.
Make, make, no sound, I don’t want to go to school.
School, school, school, I don’t want to go to school.
School, school, school, I don’t want to go to school.
School, school, school, I don’t want,
I don’t want, I don’t want, I don’t want to go to school.
I don’t want, I don’t want, I don’t want to go to school.
I don’t want, I don’t want, I don’t want to go to school.
School, school, school, I don’t want to go to school.

No I don’t.

To play the most songs, including I Don’t Want to Go to School by The Naked Brothers Band by ukulele, the most important basic ukulele chords to learn are C chord, D chord, G chord, and Em chord.
These set you up to play a ton of songs, and each of them is easy to master.

Gravatar Image
Like to play Ukulele and Sudoku Game

Leave a Reply

Your email address will not be published. Required fields are marked *