I Hate Kissing You Good-Bye by Tuff Ukulele Chords

Posted on

If you are searching for I Hate Kissing You Good-Bye ukulele chords, you’ve visit to the right place.
You can play versatile instrument I Hate Kissing You Good-Bye using ukulele or guitar.
This song by Tuff can also be played by that instruments.
=

I Hate Kissing You Good-Bye chords has rhythm and included in album.
You can also find another musical style, including jazz ukulele chords, country music ukulele chords, pop ukulele chords, world music ukulele chords, and rock ukulele chords here.

I Hate Kissing You Good-Bye by Tuff Ukulele Chords


Intro:
[G/Bb]

E|----2-1--------3--------3--------3-----------|
B|---3---3------3-3------3-3------3-3----------|
G|--2-----2----0---0----0---0----0---0---------| (2x)
D|-0-------0--2-----2--0-----0--0-----0--------|
A|-----------3--------2--------1---------------|
E|---------------------------------------------|

Verso:
Baby, Times are changing I see it in your[G/Bb] eyes
So why do we keep on pretending, why do we even [G/Bb]try

My heart is like an open book
Won’t you read between the [G/Bb]lines


E|---------------------------------------------|
B|---------------------------------------------|
G|---------------------------------------------|
D|-----------2---------------------------------|
A|-0-2-3-5-3-----------------------------------|
E|---------------------------------------------|

Ponte:
And show me, show me, show me everything’s alright

Refro:
I hate kissing you goodbye, whoa ohh oh ooooh
I’ve heard it all before, and I know for sure
That it won’t heal with time, Baby
I hate kissing you, kissing you goodbye, whoa whoa yeah

(Intro)

Verso:
Maybe, the things we shared were never meant to[G/Bb] be
Our love is like a heart attack, and it’s slowly killing[G/Bb] me, yeah

If you can taste the pain I know or
The way I feel ins[G/Bb]ide


E|---------------------------------------------|
B|---------------------------------------------|
G|---------------------------------------------|
D|-----------2---------------------------------|
A|-0-2-3-5-3-----------------------------------|
E|---------------------------------------------|

(Ponte)

Then show me, show me, show me everything’s alright

Refro:
I hate kissing you goodbye, whoa ohh oh ooooh
I’ve heard it all before, and I know for sure
That it won’t heal with time, (it won’t heal with time)
No matter what I do, or what I say, no matter how I try, Baby
I hate kissing you, kissing you goodbye, whoa whoa yeah

Solo: D C G

Then show me, show me, come on show me

Everything’s alright, mmmm

[G/Bb]


E|-------2-3-2-0-------------3--------3------------3---|
B|-----3---------3---------3---3------3------------3---|
G|---2-------------------0-------0----0------------0---|
D|-0-------------------2-----------2--0------------0---|
A|-------------------3----------------2------------2---|
E|------------------------------------3----------------|

Final:
I hate kissing you goodbye
I hate kissing you goodbye
I never, ever, ever wanted to kiss you goodbye, whoa oh oh
I hate (I hate) kissing you goodbye, Baby-baby
I hate (I hate) kissing you goodbye, (oh-oh-oh) you know I never wanted to
I hate (I hate) kissing you goodbye, bye-bye-bye
Bye-bye, (my-my) miss american pie, whoa oh ohh
I hate (I hate) kissing you goodbye

To play the most songs, including I Hate Kissing You Good-Bye by Tuff by ukulele, the most crucial basic ukulele chords to learn are C chord, D chord, G chord, and Em chord.
These set you up to play a a lot of songs, and each of them is easy to master.

Gravatar Image
Like to play Ukulele and Sudoku Game

Leave a Reply

Your email address will not be published. Required fields are marked *