I Thought About You by The Beautiful Girls Ukulele Chords

Posted on

If you are looking for I Thought About You ukulele chords, you already visit to the best site.
You can play versatile instrument I Thought About You using ukulele or guitar.
This song by The Beautiful Girls can also be played by that instruments.
=

I Thought About You chords has rhythm and included in Ziggurats (2007) album.
You can also find another musical style, including jazz ukulele chords, country music ukulele chords, pop ukulele chords, world music ukulele chords, and rock ukulele chords here.

I Thought About You by The Beautiful Girls Ukulele Chords

Intro / verse / chorus / bridge
( Tab from: http://www.guitartabs.cc/tabs/t/the_beautiful_girls/i_thought_about_you_btab_ver_2.html )
H. E E E E E E Q E E E E E E Q E E


G||---------------------||--------------------------|-------------------------|
D||---------------------||-------------------------|-------------------------|
A||---------------------||--0--0-----0-------------|-------------------------|
E||------------------3--||---------3-------------0--|--1--1--0--1----------1--|

E E E E Q E E E E E E E E E E


-------------------------|----------------------------||
-------------------------|---------------------------||
----------------------3--|--L-----0------------------||
--3--3--1--3-------1-----|-----3-----3--1--1--3--1----||

Verse 3 / Chorus 3 (breakdown)
E E E E H E E E E H E E E E Q E E


------------------------|-----------------------|-------------------------|
-----------------------|-----------------------|-------------------------|
-----0--0--------------|-----------------------|----------------------3--|
------------------------|-----1--1--------------|-----3--3----------1-----|


----------------------------||
---------------------------||
--L-----0------------------||
-----3-----3--1--1--3--1----||

Duration Legend


---------------

W – whole
H – half
Q – quarter
E – 8th

L – tie

To play the most songs, including I Thought About You by The Beautiful Girls by ukulele, the most important basic ukulele chords to learn are C chord, D chord, G chord, and Em chord.
These set you up to play a ton of songs, and each of them is easy to master.

Leave a Reply

Your email address will not be published.