I Trust You by Skillet Ukulele Chords

Posted on

If you are searching for I Trust You ukulele chords, you have come to the right place.
You can play versatile instrument I Trust You using ukulele or guitar.
This song by Skillet can also be played by that instruments.
=

I Trust You chords has rhythm and included in Invincible (2000) album.
You can also find another musical style, including jazz ukulele chords, country music ukulele chords, pop ukulele chords, world music ukulele chords, and rock ukulele chords here.

I Trust You by Skillet Ukulele Chords

Invincible
1999 Photon Music
tab by jed carson
godchasin@truthmail.com
2/22/00

Intro/Chorus

Verse
picking parts:


-----------------------0--------------2----------------------
--------2--------2--------------4----------------------------
--3-----------------2--------------4-------------------------
-----4-------------------------------------------------------
-------------------------------------------------------------
-------------------------------------------------------------

verse interlude
[(F#5)]


----------------------------------------------------
----------------------------------------------------
----------------------------------------------------
--4-4-4-4-4-4-4-------------------------------------
--4-4-4-4-4-4-4-------------------------------------
--2-2-0-2-2-0-2-------------------------------------

PreChorus- no guitar

Interlude
[(F#5)] [(B5)] [(F#5)]


-----------------------------------------------------------------------
-----------------------------------------------------------------------
-----------------------------------------------------------------------
-----------------------------4-4-4-4-4-4-4-4---------------------------
--4-4-4-4-4-4-4-4-4-4-4-4----2-2-2-2-2-2-2-2--4-4-4-4-4-4-4------------
--2-2-2-0-2-2-2-0-2-2-2-0---------------------2-2-0-2-2-0-2------------

Solo-use verse chords (F#5 A5 B5)

To play the this songs, including I Trust You by Skillet by ukulele, the most important basic ukulele chords to learn are C chord, D chord, G chord, and Em chord.
These set you up to play a ton of songs, and each of them is easy to learn.

Leave a Reply

Your email address will not be published.