If I Should Go Before You by City and Colour Ukulele Chords

Posted on

If you are looking for If I Should Go Before You ukulele chords, you already come to the right site.
You can play versatile instrument If I Should Go Before You using ukulele or guitar.
This song by City and Colour can also be played by that instruments.
=

If I Should Go Before You chords has rhythm and included in If I Should Go Before You (2015) album.
You can also get another musical genres, including jazz ukulele chords, country music ukulele chords, pop ukulele chords, world music ukulele chords, and rock ukulele chords here.

If I Should Go Before You by City and Colour Ukulele Chords



e|---0--------1--------3----|
B|---1--------3--------3----|
G|---2--------2--------0----|
D|---2--------0--------0----|
A|---0-----------------2----|
E|---------------------3----|

Riff #1


e|-------------------0---|
B|-------------------1---|
G|-------------------2---|
D|-------------------2---|
A|---5---7---3---2---0---|
E|-----------------------|

Riff #2


e|-----------------------|
B|-----------------------|
G|-----------------------|
D|-----------------------|
A|---5---7---3-----------|
E|-----------------------|

INTRO- Am | Dm | Am

VERSE
If I should go be-fore you
When that long night comes
We’ll meet in the ever after
Please don’t follow me into the sun

If you should cross the white light
And find yourself in the black
I’ll be right there be-hind you
You will have no need to look back

CHORUS
And when the night cries itself awake
Dying in the light of day
Our endless love will re-main
Riff #1 Am
Un-til we meet a-gain

INTERLUDE – Am

VERSE
If I should go be-fore you
Into the great un-known
I’ll leave my ghost right be-side you
You won’t have to wait a-lone

CHORUS
And when the night cries itself awake
Dying in the light of day
Our endless love will re-main
Riff #2
Un-til we meet?
Crying ourselves a-wake
Dying in the light of day
Our endless love will re-main
Riff #1 Am
Un-til we meet a-gain

To play the most songs, including If I Should Go Before You by City and Colour by ukulele, the most crucial basic ukulele chords to learn are C chord, D chord, G chord, and Em chord.
These set you up to play a a lot of songs, and each of them is easy to master.

Leave a Reply

Your email address will not be published.