If You Can’t Ride Two Horses at Once… You Should Get Out of the Circus by Asking Alexandria Ukulele Chords

Posted on

If you are looking for If You Can’t Ride Two Horses at Once… You Should Get Out of the Circus ukulele chords, you already come to the right site.
You can play versatile instrument If You Can’t Ride Two Horses at Once… You Should Get Out of the Circus using ukulele or guitar.
This song by Asking Alexandria can also be played by that instruments.
=

If You Can’t Ride Two Horses at Once… You Should Get Out of the Circus chords has rhythm and included in Stand Up and Scream (2009) album.
You can also get other musical style, including jazz ukulele chords, country music ukulele chords, pop ukulele chords, world music ukulele chords, and rock ukulele chords here.

If You Can’t Ride Two Horses at Once… You Should Get Out of the Circus by Asking Alexandria Ukulele Chords

Drop D – DADGBE

This version is adapted to only 2 guitars, as in some parts a 3rd guitar would come into the song.

[—]
GUITAR 1

16x 8x 8x 16x 8x 2x 2x 2x 2x


e|----------------------------------------------------------------------------|
B|----------------------------------------------------------------------------|
G|----------------------------------------------------------------------------|
D|----------------------------------------------------------------------------|
A|-5555555555555555-88888888-77777777---------------------------1010-88-77-88-|
D|------------------------------------8888888888888888-77777777---------------|

16x 8x 8x 16x 16x


e|----------------------------------------------------------------------|
B|----------------------------------------------------------------------|
G|----------------------------------------------------------------------|
D|----------------------------------------------------------------------|
A|-5555555555555555-88888888-77777777-----------------------------------|
D|------------------------------------8888888888888888-7777777777777777-|
e|-------------------------------------------------------------|
B|-------------------------------------------------------------|
G|-------------------------------------------------------------|
D|-------------------------------------------------------------|
A|-000000~-000000~-0000~-000000~-000000~-000000~-0000~-000000~-|
D|-000000~-000000~-0000~-000000~-000000~-000000~-0000~-000000~-|

…… …… …. …… …… …… …. ……


e|----------------------------------------------------------------|
B|---------6----------------6------------6------------------------|
G|-----------9------------9---9------------9----------------------|
D|-------------7--------7--------------------7--------------------|
A|-000000---------0000-----------000000---------0000--00000-00000-|
D|-000000---------0000-----------000000---------0000--00000-00000-|

…… …. …… …. ….. …..
^^^^^ ^^^^^
Faster Strums


e|-------------------------------------------------------------|
B|---------6----------------6------------6---------------------|
G|-----------9------------9---9------------9----------5--7-----|
D|-------------7--------7--------------------7--------x--x--0~-|
A|-000000---------0000-----------000000---------0000--3--5--0~-|
D|-000000---------0000-----------000000---------0000--------0~-|

…… …. …… ….


e|------------------------------------------------------------------|
B|------------------------------------------------------------------|
G|------------------------------------------------------------------|
D|------------------------------------------------------------------|
A|-5-----5-----5---8---7---5---7---1-----1-----1---0-----0-----10-8-|
D|---0-0---0-0---0---0---0---0---0---0-0---0-0---0---0-0---0-0------|

. . . . . . . . . . . . . . . . . .


e|--------------------------------------------------------------------|
B|--------------------------------------------------------------------|
G|--------------------------------------------------------------------|
D|--------------------------------------------------------------------|
A|-5-----5-----5---8---7---5---7---10-----10-----10---8-----8-----8---|
D|---0-0---0-0---0---0---0---0---0----0-0----0-0----0---0-0---0-0---0-|

. . . . . . . . . . . . . . . . . . .


e|------------------------------------------------------------------|
B|------------------------------------------------------------------|
G|------------------------------------------------------------------|
D|------------------------------------------------------------------|
A|-5-----5-----5---8---7---5---7---1-----1-----1---0-----0-----10-8-|
D|---0-0---0-0---0---0---0---0---0---0-0---0-0---0---0-0---0-0------|

. . . . . . . . . . . . . . . . . .


e|--------------------------------------------------------------------|
B|--------------------------------------------------------------------|
G|--------------------------------------------------------------------|
D|--------------------------------------------------------------------|
A|-5-----5-----5---8---7---5---7---10-----10-----10---8-----8-----8---|
D|---0-0---0-0---0---0---0---0---0----0-0----0-0----0---0-0---0-0---0-|

. . . . . . . . . . . . . . . . . . .


e|----------|
B|----------|
G|----------|
D|-8-----10-|
A|-8-----10-|

D|-8-0-0-10-|
. .


e|--------------------------------------------------|
B|--------------------------------------------------|
G|--------------------------------------------------|
D|--------------------------------------------------|
A|-3-00---3h5--3-00------3-00---3h5--3-00---3-0-0-5-|
D|-3-00---3h5--3-00------3-00---3h5--3-00---3-0-0-5-|

. .


e|------------------------------------------------|
B|------------------------------------------------|
G|------------------------------------------------|
D|-----------------------------------------3h5p3--|
A|-3-00-000-----------------3-00-000----3h5-----5-|
D|-3-00-000-3p0-0-5p0-0-6p0-3-00-000-3h5----------|

… . . …


e|-------------------------------------------|
B|-------------------------------------------|
G|-------------------------------------------|
D|-------------------------------------------|
A|-3-00-000-----------------3-00-000-3-0-0-5-|
D|-3-00-000-3p0-0-5p0-0-6p0-3-00-000-3-0-0-5-|

… . . … . .


e|------------------------------------------------|
B|------------------------------------------------|
G|------------------------------------------------|
D|-----------------------------------------3h5p3--|
A|-3-00-000-----------------3-00-000----3h5-----5-|
D|-3-00-000-3p0-0-5p0-0-6p0-3-00-000-3h5----------|

… . . …


e|-------------------------------------------|
B|-------------------------------------------|
G|-------------------------------------------|
D|-------------------------------------------|
A|-3-00-000-----------------3-00-000-3-0-0-5-|
D|-3-00-000-3p0-0-5p0-0-6p0-3-00-000-3-0-0-5-|

… . . … . .


e|--------------------------------------------------------|
B|--------------------------------------------------------|
G|-10--------9--------10--------14-------12-------15------|
D|-x--(16x)--x-(16x)--x--(16x)--x--(8x)--x--(4x)--x--(4x)-|
A|-8---------7--------8---------12-------10-------13------|
D|--------------------------------------------------------|
e|--------------------------------------------------|
B|--------------------------------------------------|
G|-10--------9--------10--------3-------9-------10~-|
D|-x--(16x)--x-(16x)--x--(16x)--x-(8x)--x-(8x)--x---|
A|-8---------7--------8---------1-------7-------8~--|
D|--------------------------------------------------|
e|------------------------------------------|
B|------------------------------------------|
G|------------------------------------------|
D|------------------------------------------|
A|-000000000--0000000-00-000000000--0000000-|
D|-000000000--0000000-00-000000000--0000000-|

……… ……. .. ……… …….


e|--------------------------------------|
B|--------------------------------------|
G|--------------------------------------|
D|--------------------------------------|
A|-0~0~0~0--0000000-00--0~0~0~0-0000000-|
D|-0~0~0~0--0000000-00--0~0~0~0-0000000-|

. . . . ……. .. . . . . …….

4x 4x 4x 4x 4x 4x 4x 4x


e|---------------------------------------------|
B|---------------------------------------------|
G|---------------------------------------------|
D|---------------------------------------------|
A|-5555-8888-4444-7777-5555-8888-10101010-7777-|
D|---------------------------------------------|

4x 4x 4x 4x 4x 4x 4x 4x


e|-------------------------------------------------------------|
B|-------------------------------------------------------------|
G|-------------------------------------------------------------|
D|-------------------------------------------------------------|
A|-8888-12121212-7777-10101010-8888-12121212-13131313-10101010-|
D|-------------------------------------------------------------|
e|----------------------------------------------------|
B|----------------------------------------------------|
G|----------------------------------------------------|
D|----------------------------------------------------|
A|-000000000~-0000000~-00~-000000000~-0000000~-00~-0~-|
D|-111111111~-1111111~-11~-111111111~-1111111~-11~-0~-|
e|--------------------------------------------|
B|--------------------------------------------|
G|-10-------9-------10-------15-------14------|
D|-x--(8x)--x-(8x)--x--(8x)--x--(4x)--x--(4x)-|
A|-8--------7-------8--------13-------12------|
D|--------------------------------------------|
e|------------------------------------------|
B|------------------------------------------|
G|-10-------9-------10-------3-------5------|
D|-x--(8x)--x-(8x)--x--(8x)--x-(4x)--x-(4x)-|
A|-8--------7-------8--------1-------3------|
D|------------------------------------------|
e|--------------------------------------------|
B|--------------------------------------------|
G|-10-------9-------10-------15-------14------|
D|-x--(8x)--x-(8x)--x--(8x)--x--(4x)--x--(4x)-|
A|-8--------7-------8--------13-------12------|
D|--------------------------------------------|
e|---------------------------------------------|
B|---------------------------------------------|
G|-10-------9-------10-------3-------5---------|
D|-x--(8x)--x-(8x)--x--(8x)--x-(4x)--x-(4x)-0~-|
A|-8--------7-------8--------1-------3------0~-|
D|------------------------------------------0~-|

[—]
GUITAR 2


e|------------------------------------------------------------|
B|------------------------------------------------------------|
G|------------------------------------------------------------|
D|------------------------------------------------------------|
A|-000000--000000--0000--000000--000000--000000--0000--000000-|
D|-000000--000000--0000--000000--000000--000000--0000--000000-|

…… …… …. …… …… …… …. ……


e|-----------------------------------------------------------|
B|-----------------------------------------------------------|
G|-----------------------------------------------------------|
D|-----------------------------------------------------------|
A|-000000--000000--0000--000000--000000--000000--0000--00000-|
D|-000000--000000--0000--000000--000000--000000--0000--00000-|

…… …… …. …… …… …… …. …..


e|-------------------------------------------------------------|
B|-------------------------------------------------------------|
G|-------------------------------------------------------------|
D|-------------------------------------------------------------|
A|-000000~-000000~-0000~-000000~-000000~-000000~-0000~-000000~-|
D|-000000~-000000~-0000~-000000~-000000~-000000~-0000~-000000~-|

…… …… …. …… …… …… …. ……


e|----------------------------------------------------------------|
B|----------------------------------------------------------------|
G|---------5----------------5------------5------------------------|
D|-----------3------------3---3------------3----------------------|
A|-000000------0--0000--0--------000000------0--0000--00000-00000-|
D|-000000---------0000-----------000000---------0000--00000-00000-|

…… …. …… …. ….. …..
^^^^^ ^^^^^
Faster Strums


e|-------------------------------------------------------------------|
B|-------------------------------------------------------------------|
G|---------5----------------5------------5---------------------------|
D|-----------3------------3---3------------3----------------------0~-|
A|-000000------0--0000--0--------000000------0--0000--00000-00000-0~-|
D|-000000---------0000-----------000000---------0000--00000-00000-0~-|

…… …. …… …. ….. …..
^^^^^ ^^^^^
Faster Strums


e|------------------------------------------------------------------|
B|------------------------------------------------------------------|
G|------------------------------------------------------------------|
D|------------------------------------------------------------------|
A|-0-----------------------0-0------------0-----0-0~---Pickslide--|
D|-0-----------------------0-0------------0-----0-0~----------------|

. . . . . .


e|-----------------------------------------------------------------|
B|-----------------------------------------------------------------|
G|-----------------------------------------------------------------|
D|-3-----3-----3---7---5---3---7-------------------------------8-7-|
A|---------------------------------5-----5-----5---3-----3---------|
D|---0-0---0-0---0---0---0---0---0---0-0---0-0---0---0-0---0-0-----|

. . . . . . . . . . . . . . . . . .


e|-----------------------------------------------------------------|
B|-----------------------------------------------------------------|
G|-----------------------------------------------------------------|
D|-3-----3-----3---7---5---3---7---8-----8-----8---7-----7-----7---|
A|-----------------------------------------------------------------|
D|---0-0---0-0---0---0---0---0---0---0-0---0-0---0---0-0---0-0---0-|

. . . . . . . . . . . . . . . . . . .


e|----------|
B|----------|
G|----------|
D|-8-----10-|
A|-8-----10-|

D|-8-0-0-10-|
. .


e|--------------------------------------------------|
B|--------------------------------------------------|
G|--------------------------------------------------|
D|--------------------------------------------------|
A|-3-00---3h5--3-00------3-00---3h5--3-00---3-0-0-5-|
D|-3-00---3h5--3-00------3-00---3h5--3-00---3-0-0-5-|

. .


e|------------------------------------------------|
B|------------------------------------------------|
G|------------------------------------------------|
D|-----------------------------------------3h5p3--|
A|-3-00-000-----------------3-00-000----3h5-----5-|
D|-3-00-000-3p0-0-5p0-0-6p0-3-00-000-3h5----------|

… . . …


e|-------------------------------------------|
B|-------------------------------------------|
G|-------------------------------------------|
D|-------------------------------------------|
A|-3-00-000-----------------3-00-000-3-0-0-5-|
D|-3-00-000-3p0-0-5p0-0-6p0-3-00-000-3-0-0-5-|

… . . … . .


e|------------------------------------------------|
B|------------------------------------------------|
G|------------------------------------------------|
D|-----------------------------------------3h5p3--|
A|-3-00-000-----------------3-00-000----3h5-----5-|
D|-3-00-000-3p0-0-5p0-0-6p0-3-00-000-3h5----------|

… . . …


e|-------------------------------------------|
B|-------------------------------------------|
G|-------------------------------------------|
D|-------------------------------------------|
A|-3-00-000-----------------3-00-000-3-0-0-5-|
D|-3-00-000-3p0-0-5p0-0-6p0-3-00-000-3-0-0-5-|

… . . … . .


e|--------------------------------------------------------|
B|--------------------------------------------------------|
G|-10--------9--------10--------14-------12-------15------|
D|-x--(16x)--x-(16x)--x--(16x)--x--(8x)--x--(4x)--x--(4x)-|
A|-8---------7--------8---------12-------10-------13------|
D|--------------------------------------------------------|
e|--------------------------------------------------|
B|--------------------------------------------------|
G|-10--------9--------10--------3-------9-------10~-|
D|-x--(16x)--x-(16x)--x--(16x)--x-(8x)--x-(8x)--x---|
A|-8---------7--------8---------1-------7-------8~--|
D|--------------------------------------------------|
e|------------------------------------------|
B|------------------------------------------|
G|------------------------------------------|
D|------------------------------------------|
A|-000000000--0000000-00-000000000--0000000-|
D|-000000000--0000000-00-000000000--0000000-|

……… ……. .. ……… …….


e|--------------------------------------|
B|--------------------------------------|
G|--------------------------------------|
D|--------------------------------------|
A|-0~0~0~0--0000000-00--0~0~0~0-0000000-|
D|-0~0~0~0--0000000-00--0~0~0~0-0000000-|

. . . . ……. .. . . . . …….


e|---------------------------------------------|
B|---------------------------------------------|
G|---------------------------------------------|
D|---------------------------------------------|
A|-000000000--0000000-00-000000000--0000000-00-|
D|-000000000--0000000-00-000000000--0000000-00-|

……… ……. .. ……… ……. ..


e|----------------------------------------------------|
B|----------------------------------------------------|
G|----------------------------------------------------|
D|----------------------------------------------------|
A|-000000000~-0000000~-00~-000000000~-0000000~-00~-0~-|
D|-111111111~-1111111~-11~-111111111~-1111111~-11~-0~-|
e|--------------------------------------------|
B|--------------------------------------------|
G|-10-------9-------10-------15-------14------|
D|-x--(8x)--x-(8x)--x--(8x)--x--(4x)--x--(4x)-|
A|-8--------7-------8--------13-------12------|
D|--------------------------------------------|
e|------------------------------------------|
B|------------------------------------------|
G|-10-------9-------10-------3-------5------|
D|-x--(8x)--x-(8x)--x--(8x)--x-(4x)--x-(4x)-|
A|-8--------7-------8--------1-------3------|
D|------------------------------------------|
e|--------------------------------------------|
B|--------------------------------------------|
G|-10-------9-------10-------15-------14------|
D|-x--(8x)--x-(8x)--x--(8x)--x--(4x)--x--(4x)-|
A|-8--------7-------8--------13-------12------|
D|--------------------------------------------|
e|---------------------------------------------|
B|---------------------------------------------|
G|-10-------9-------10-------3-------5---------|
D|-x--(8x)--x-(8x)--x--(8x)--x-(4x)--x-(4x)-0~-|
A|-8--------7-------8--------1-------3------0~-|
D|------------------------------------------0~-|

[—]
Please rate. Thanks ^-^

To play the most songs, including If You Can’t Ride Two Horses at Once… You Should Get Out of the Circus by Asking Alexandria by ukulele, the most crucial basic ukulele chords to learn are C chord, D chord, G chord, and Em chord.
These set you up to play a a lot of songs, and each of them is easy to master.

Leave a Reply

Your email address will not be published.