I’m Just Fine by The Letter Black Ukulele Chords

Posted on

If you are looking for I’m Just Fine ukulele chords, you’ve visit to the right place.
You can play versatile instrument I’m Just Fine using ukulele or guitar.
This song by The Letter Black can also be played by that instruments.
=

I’m Just Fine chords has rhythm and included in Hanging On by a Thread (2010) album.
You can also get other musical genres, including jazz ukulele chords, country music ukulele chords, pop ukulele chords, world music ukulele chords, and rock ukulele chords here.

I’m Just Fine by The Letter Black Ukulele Chords


F#|-----------------------------------------------------------------|
C#|-----------------------------------------------------------------|
G#|-----------------------------------------------------------------|
C#|---5-5-5-5-6-5-----5-5-5-5-6-5-----5-5-5-5-6-5-----8-8-8---6-6-6-|

[+] [+] [+] [+] [+] [+] [+] [+] [+][+][+][+][+][+][+][+]


F#|-----------------------------------------------------------------|
C#|-----------------------------------------------------------------|
G#|-------------------------------------------------6-----5---------|
C#|---5-5-5-5-6-5-----5-5-5-5-6-5-----5-5-5-5-6-5-----6-6---6-6-5h6-|

[+] [+] [+] [+] [+] [+] [+] [+] [+][+][+][+][+][+][+][+]
Verse 0:10


F#|------------------------------------------------------------------|
C#|o-----------------------------------------------------------------|
G#|o-----------------------------------------------------------------|
C#|--5-5-----5-5-5-----5-5---5-5-5---1-1-----1-1-1-----3-3---3-3-3---|

[+] [+] [+] [+] [+] [+] [+] [+] [+][+][+][+][+][+][+][+]


F#|------------------------------------------------------------------|
C#|-----------------------------------------------------------------o|
G#|---------------------------------1-1-----1-1-1-------------------o|
C#|-5-5-----5-5-5-----5-5---5-5-5---------------------6-6---6-------|

[+] [+] [+] [+] [+] [+] [+] [+] [+][+][+][+][+][+][+][+]
Chorus 0:33


F#|-----------------------------------------------------------------|
C#|-----------------------------------------------------------------|
G#|-------------------1---1-1-1-1-1---3---3-3-3-3-3-3-5---5-5-5-5-5-|
C#|---5---5-5-5-5-5-------------------------------------------------|

[+] [+] [+] [+] [+] [+] [+] [+] [+][+][+][+][+][+][+][+]


F#|-----------------------------------------------------------------|
C#|-----------------------------------------------------------------|
G#|-------------------1---1-1-1-1-1---------------------------------|
C#|---5---5-5-5-5-5-------------------3---3-3-3-3-3-3-1---1-1-1-1-1-|

[+] [+] [+] [+] [+] [+] [+] [+] [+][+][+][+][+][+][+][+]


F#|-----------------------------------------------------------------|
C#|-----------/-5-------3-------------------------------------------|
G#|-----------------------------5---3-------3---3---5-------1---1---|
C#|-5-------5-------------------------------------------------------|

[+] [+] [+] [+] [+] [+] [+] [+] [+][+][+][+][+][+][+][+]


F#|-----------------------------------------------------------------|
C#|-----------------------------------------------------------------|
G#|-----------------------------------------------------------------|
C#|-1-----1-----1---1---------------3-----3-----3---3---/---15-----|

[+] [+] [+] [+] [+] [+] [+] [+] [+][+][+][+][+][+][+][+]
Interlude 0:54


F#|-----------------------------------------------------------------|
C#|-----------------------------------------------------------------|
G#|-----------------------------------------------------------------|
C#|---5-5-5-5-6-5-----5-5-5-5-6-5-----5-5-5-5-6-5-----8-8-8---6-6-6-|

[+] [+] [+] [+] [+] [+] [+] [+] [+][+][+][+][+][+][+][+]


F#|-----------------------------------------------------------------|
C#|-----------------------------------------------------------------|
G#|-----------------------------------------------------------------|
C#|---5-5-5-5-6-5-----5-5-5-5-6-5-----5-5-5-5-6-5---13-----------|

[+] [+] [+] [+] [+] [+] [+] [+] [+][+][+][+][+][+][+][+]
Verse 1:05


F#|------------------------------------------------------------------|
C#|o-----------------------------------------------------------------|
G#|o-----------------------------------------------------------------|
C#|--5-5-----5-5-5-----5-5---5-5-5---1-1-----1-1-1-----3-3---3-3-3---|

[+] [+] [+] [+] [+] [+] [+] [+] [+][+][+][+][+][+][+][+]


F#|------------------------------------------------------------------|-----------------|
C#|-----------------------------------------------------------------o|-----------------|
G#|---------------------------------1-1-----1-1-1-------------------o|-----------------|
C#|-5-5-----5-5-5-----5-5---5-5-5---------------------6-6---6-------|---------3---3---|

[+] [+] [+] [+] [+] [+] [+] [+] [+][+][+][+][+][+][+][+][+][+][+][+]
Chorus 1:28


F#|-----------------------------------------------------------------|
C#|-----------------------------------------------------------------|
G#|-------------------1---1-1-1-1-1---3---3-3-3-3-3-3-5---5-5-5-5-5-|
C#|---5---5-5-5-5-5-------------------------------------------------|

[+] [+] [+] [+] [+] [+] [+] [+] [+][+][+][+][+][+][+][+]


F#|-----------------------------------------------------------------|
C#|-----------------------------------------------------------------|
G#|-------------------1---1-1-1-1-1---------------------------------|
C#|---5---5-5-5-5-5-------------------3---3-3-3-3-3-3-1---1-1-1-1-1-|

[+] [+] [+] [+] [+] [+] [+] [+] [+][+][+][+][+][+][+][+]


F#|-----------------------------------------------------------------|
C#|-----------/-5-------3-------------------------------------------|
G#|-----------------------------5---3-------3---3---5-------1---1---|
C#|-5-------5-------------------------------------------------------|

[+] [+] [+] [+] [+] [+] [+] [+] [+][+][+][+][+][+][+][+]


F#|-----------------------------------------------------------------|
C#|-----------------------------------------------------------------|
G#|-----------------------------------------------------------------|
C#|-1-----1-----1---1---1---1---1---3-----3-----3---3---------------|

[+] [+] [+] [+] [+] [+] [+] [+] [+][+][+][+][+][+][+][+]
Rest

Bridge 1:54


F#|-----------------------------------------------------------------|
C#|-----------------------------------------------------------------|
G#|-----------------------------------------------------------------|
C#|-13-----------------------------------------------------------|

[+] [+] [+] [+] [+] [+] [+] [+] [+][+][+][+][+][+][+][+]
2:00


F#|-----------------------------------------------------------------|
C#|-----------------------------------------------------------------|
G#|-------6-6-6-5-5-5-1-1-1---------------6-6-6-5-5-5-8-8-8---------|
C#|-5-5-5-------------------3-3-6-6-5-5-5-------------------3-3-6-6-|

[+] [+] [+] [+] [+] [+] [+] [+] [+][+][+][+][+][+][+][+]


F#|-----------------------------------------------------------------|
C#|-----------------------------------------------------------------|
G#|-------6-6-6-5-5-5-1-1-1---------------6-6-6-5-5-5-8-8-8---------|
C#|-5-5-5-------------------3-3-6-6-5-5-5-------------------6---6--|

[+] [+] [+] [+] [+] [+] [+] [+] [+][+][+][+][+][+][+][+]
Chorus 2:10


F#|-----------------------------------------------------------------|
C#|-----------------------------------------------------------------|
G#|-------------------1---1-1-1-1-1---3---3-3-3-3-3-3-5---5-5-5-5-5-|
C#|---5---5-5-5-5-5-------------------------------------------------|

[+] [+] [+] [+] [+] [+] [+] [+] [+][+][+][+][+][+][+][+]


F#|-----------------------------------------------------------------|
C#|-----------------------------------------------------------------|
G#|-------------------1---1-1-1-1-1---------------------------------|
C#|---5---5-5-5-5-5-------------------3---3-3-3-3-3-3-1---1-1-1-1-1-|

[+] [+] [+] [+] [+] [+] [+] [+] [+][+][+][+][+][+][+][+]


F#|-----------------------------------------------------------------|
C#|-----------------------------------------------------------------|
G#|-------------------1-1-1-1-1-1-1-1-3-----3-3-3-3-3-5-5---5---5---|
C#|-5-5-----5-5-5-5-------------------------------------------------|

[+] [+] [+] [+] [+] [+] [+] [+] [+][+][+][+][+][+][+][+]


F#|-----------------------------------------------------------------|
C#|-----------------------------------------------------------------|
G#|-----------------------------------------------------------------|
C#|-1-----1-----1-1-1---1---1---1---3-----3-----3---3---------------|

[+] [+] [+] [+] [+] [+] [+] [+] [+][+][+][+][+][+][+][+]


F#|-----------------------------------------------------------------|
C#|-----------------------------------------------------------------|
G#|-----------------------------------------------------------------|
C#|-1-----1-----1---1---------------3-----3-----3---3-------3-------|

[+] [+] [+] [+] [+] [+] [+] [+] [+][+][+][+][+][+][+][+]
Outro


F#|-----------------------------------------------------------------|
C#|-----------------------------------------------------------------|
G#|-----------------------------------------------------------------|
C#|---5-5-5-5-6-5-----5-5-5-5-6-5-----5-5-5-5-6-5-----8-8-8---6-6-6-|

[+] [+] [+] [+] [+] [+] [+] [+] [+][+][+][+][+][+][+][+]


F#|-----------------------------------------------------------------|
C#|-----------------------------------------------------------------|
G#|-----------------------------------------------------------------|
C#|---5-5-5-5-6-5-----5-5-5-5-6-5-----5-5-5-5-6-5-----1-1-1-1-1-1-1-|

Tabbed[+] by [+]Dave[+] Vuc[+]ko[+][+][+][+][+][+][+][+][+][+][+][+]

To play the most songs, including I’m Just Fine by The Letter Black by ukulele, the most important basic ukulele chords to learn are C chord, D chord, G chord, and Em chord.
These set you up to play a many of songs, and each of them is easy to master.

Leave a Reply

Your email address will not be published.