I’m Not the One by Sum 41 Ukulele Chords

Posted on

If you are looking for I’m Not the One ukulele chords, you have come to the right place.
You can play versatile instrument I’m Not the One using ukulele or guitar.
This song by Sum 41 can also be played by that instruments.
=

I’m Not the One chords has rhythm and included in Chuck (2004) album.
You can also get another musical genres, including jazz ukulele chords, country music ukulele chords, pop ukulele chords, world music ukulele chords, and rock ukulele chords here.

I’m Not the One by Sum 41 Ukulele Chords


I’m Not The One
Chuck
2004 Aquarius Records
Submitted by: paramore_fans@yahoo.com

Key: E

Tuning: Standard

Chords used:
C#m – x46654
A – x02220
B – x24442
E – [-] 022100
D – xx0232

Intro:


Deryck: C#m--A--B--F#m x16

Dave: Will enter at 3rd time up to 8th
H. Q Q H Q Q H Q


E||--------------------|--4----0-------------|-------0-------------|
B||---------------2----|----------------2----|--L-------------2----|
G||--------------------|---------------------|---------------------|
D||--------------------|---------------------|---------------------|
A||--------------------|---------------------|---------------------|
E||--------------------|---------------------|---------------------|

Q H Q Q H Q Q H Q


--4----0-------------|-------0-------------|--4----0--------4----|
----------------2----|--L-------------2----|---------------------|
---------------------|---------------------|---------------------|
---------------------|---------------------|---------------------|
---------------------|---------------------|---------------------|
---------------------|---------------------|---------------------|

H Q Q Q H Q H H


--0--------0---------|--4----0--------0----|--0-----------------|
----------------2----|---------------------|--------------------|
---------------------|---------------------|--------------------|
---------------------|---------------------|--------------------|
---------------------|---------------------|--------------------|
---------------------|---------------------|--------------------|

Q H Q H Q Q Q H Q


--4----0--------4----|--0--------0---------|-------2-------------|
---------------------|----------------2----|--4-------------2----|
---------------------|---------------------|---------------------|
---------------------|---------------------|---------------------|
---------------------|---------------------|---------------------|
---------------------|---------------------|---------------------|

Q H Q Q H Q H Q Q


-------2--------0----|--4----0--------4----|--0--------0---------|
--L------------------|---------------------|----------------2----|
---------------------|---------------------|---------------------|
---------------------|---------------------|---------------------|
---------------------|---------------------|---------------------|
---------------------|---------------------|---------------------|

Q H Q Q H Q Q H Q


-------2-------------|-------2--------0----|--4----0--------4----|
--4-------------2----|--L------------------|---------------------|
---------------------|---------------------|---------------------|
---------------------|---------------------|---------------------|
---------------------|---------------------|---------------------|
---------------------|---------------------|---------------------|

H Q Q Q H Q Q H Q


--0--------0---------|-------2-------------|-------2--------0----|
----------------2----|--4-------------2----|--L------------------|
---------------------|---------------------|---------------------|
---------------------|---------------------|---------------------|
---------------------|---------------------|---------------------|
---------------------|---------------------|---------------------|

Q H Q H Q Q Q H Q


--4----0--------4----|--0--------0---------|-------2-------------|
---------------------|----------------2----|--4-------------2----|
---------------------|---------------------|---------------------|
---------------------|---------------------|---------------------|
---------------------|---------------------|---------------------|
---------------------|---------------------|---------------------|

Q H S S E


-------2--------L---4--||
--L-----------------5--||
--------------------6--||
-----------------------||
-----------------------||
-----------------------||

Verse 1:
Welcome to obsession
It makes the
world go round
We’re made up by
the people we surround
So We live and die
for shit we don’t need
Well maybe it’s
the price of envy
With these eyes I
look out for me
But everyone fades
away who don’t see
Nothing’s gonna change
Why We’re going
down in flames So
I’m not the one

Chorus:
Don’t wait for me
Cause I won’t
just sit by
While you just bleed
Myself and others dry
Don’t wait for me
To be there in the end
When you don’t see
The truth you
just pretend
Don’t wait for me

Dave: Chorus


E||--0--0--0--0--------------|--0--0--0--0--2--2--2--2--|
B||--------------4--4--4--4--|--------------------------|
G||--------------------------|--------------------------|
D||--2--2--2--2--------------|--2--2--2--2--4--4--4--4--|
A||--------------6--6--6--6--|--------------------------|
E||--------------------------|--------------------------|


--0--0--0--0--------------|--0--0--0--0--2--2--2--2--|
--------------4--4--4--4--|--------------------------|
--------------------------|--------------------------|
--2--2--2--2--------------|--2--2--2--2--4--4--4--4--|
--------------6--6--6--6--|--------------------------|
--------------------------|--------------------------|


--4--4--4--4--2--2--2--2--|--0--0--0--0--------------|
--------------------------|--------------4--4--4--4--|
--------------------------|--------------------------|
--6--6--6--6--4--4--4--4--|--2--2--2--2--------------|
--------------------------|--------------6--6--6--6--|
--------------------------|--------------------------|


--0--0--0--0--------------|--------------------------|
--------------4--4--4--4--|--------------0--0--0--0--|
--------------------------|--6--6--6--6--------------|
--2--2--2--2--------------|--------------------------|
--------------6--6--6--6--|--4--4--4--4--2--2--2--2--|
--------------------------|--------------------------|


--0--0--0--0--------------|--0--0--0--0--2--2--2--2--|
--------------4--4--4--4--|--------------------------|
--------------------------|--------------------------|
--2--2--2--2--------------|--2--2--2--2--4--4--4--4--|
--------------6--6--6--6--|--------------------------|
--------------------------|--------------------------|


--0--0--0--0--------------|--0--0--0--0--2--2--2--2--|
--------------4--4--4--4--|--------------------------|
--------------------------|--------------------------|
--2--2--2--2--------------|--2--2--2--2--4--4--4--4--|
--------------6--6--6--6--|--------------------------|
--------------------------|--------------------------|


--4--4--4--4--2--2--2--2--|--0--0--0--0--------------|
--------------------------|--------------4--4--4--4--|
--------------------------|--------------------------|
--6--6--6--6--4--4--4--4--|--2--2--2--2--------------|
--------------------------|--------------6--6--6--6--|
--------------------------|--------------------------|


--0--0--0--0--------------|--------------------------||
--------------4--4--4--4--|--------------0--0--0--0--||
--------------------------|--6--6--6--6--------------||
--2--2--2--2--------------|--------------------------||
--------------6--6--6--6--|--4--4--4--4--2--2--2--2--||
--------------------------|--------------------------||

Verse 2:
What is the solution
We already know
There’s no telling
how far this could go
No You’re near your time
but you just don?t see
Cause you?re just
Part of this game
There’s nothing you
can do to save yourself
You leave your life in
the hands of someone else
You’ll never let it go
Why It’s the only
way you know Know
I’m not the one

(Repeat Chorus)

Bridge:
C#m x2 A B
When did we begin
C#m x2 A B
To let ourselves give in
C#m x2 A B
How’d it come to this
C#m x2 A B C#m—D x8
Miserable bliss

Dave: while doing Bliss


E||---------------------------|--------------------------|
B||---------------------------|--------------------------|
G||---------------------------|--2--------1-----------1--|
D||---------6--------4--------|--------------------4-----|
A||--/4--4-----4--4-----4--4--|-----4--4-----4--4--------|
E||---------------------------|--------------------------|

E E E E E E E E E E E E E E Q E E E E E E E E


--------------------------|-------------------------|--------------------------|
--------------------------|-------------------------|--------------------------|
--------1-----------------|--2--1-----1-------------|--------1-----------------|
-----------------4--------|--------4-----4--2--4----|-----------------4--------|
--4--4-----4--4-----4--4--|-------------------------|--4--4-----4--4-----4--4--|
--------------------------|-------------------------|--------------------------|

E E E E E E E E E E E E E E E E E E E E E E Q


--------------------------|--------------------------|-------------------------|
--------------------------|--------------------------|-------------------------|
--2--------1-----------1--|--------1-----------------|--2--1-----1-------------|
--------------------4-----|-----------------4--------|--------4-----4--2--4----|
-----4--4-----4--4--------|--4--4-----4--4-----4--4--|-------------------------|
--------------------------|--------------------------|-------------------------|


--------------------------|--------------------------|
--------------------------|--------------------------|
--------1-----------------|--2--------1-----------1--|
-----------------4--------|--------------------4-----|
--4--4-----4--4-----4--4--|-----4--4-----4--4--------|
--------------------------|--------------------------|

E E E E E E E E E E E E E E Q E E E E E E E E


--------------------------|-------------------------|--------------------------|
--------------------------|-------------------------|--------------------------|
--------1-----------------|--4--2--1--2--1-----1----|--------1-----------------|
-----------------4--------|-----------------4-------|-----------------4--------|
--4--4-----4--4-----4--4--|-------------------------|--4--4-----4--4-----4--4--|
--------------------------|-------------------------|--------------------------|

E E E E E E E E E E E E E E E E E E E E E E Q


--------------------------|--------------------------|-------------------------|
--------------------------|--------------------------|-------------------------|
--2--------1-----------1--|--------1-----------------|--4--2--1--2--1-----1----|
--------------------4-----|-----------------4--------|-----------------4-------|
-----4--4-----4--4--------|--4--4-----4--4-----4--4--|-------------------------|
--------------------------|--------------------------|-------------------------|

Q E E Q E E Q E E E E Q Q E E Q E E


------------------------|------------------------|------------------------|
------------------------|-------------0--0--0----|------------------------|
------------------------|------------------------|------------------------|
--2----2--4--2----2--4--|--2----2--4--2----------|--2----2--4--2----2--4--|
------------------------|------------------------|------------------------|
------------------------|------------------------|------------------------|

Q E E E E Q Q E E Q E E Q E E E E Q


------------------------|------------------------|------------------------|
-------------0--0--0----|------------------------|-------------0--0--0----|
------------------------|------------------------|------------------------|
--2----2--4--2----------|--2----2--4--2----2--4--|--2----2--4--2----------|
------------------------|------------------------|------------------------|
------------------------|------------------------|------------------------|

Q E E Q E E Q E E E E Q W


------------------------|------------------------|-------------------|
------------------------|------------------------|-------------------|
------------------------|-------------1--1--1----|-------------------|
--2----2--4--2----2--4--|--2----2--4--2----------|-------------------|
------------------------|------------------------|-------------------|
------------------------|------------------------|-------------------|

Q Q H


------------7--------||
----------------------||
----------------------||
----------------------||
----------------------||
----------------------||

Verse 3:
Just take the rest of
Just take the best of me
Just take the rest of
Just take the best of me

Deryck Screams:
Just take the best of me!!!
Just take the best of me!!!
Just take the best of me!!!
Just take the best!!!

(Repeat Chorus)

Outro: C#m x4, D(hold)

To play the this songs, including I’m Not the One by Sum 41 by ukulele, the most important basic ukulele chords to learn are C chord, D chord, G chord, and Em chord.
These set you up to play a many of songs, and each of them is easy to master.

Gravatar Image
Like to play Ukulele and Sudoku Game

Leave a Reply

Your email address will not be published. Required fields are marked *